Black Rebel Motorcycle Club - Stop Chords & Tabs

 

Stop Chords & Tabs

Black Rebel Motorcycle Club Chords & Tabs

Version: 1 Type: Bass Tab 0 ratings
1 star 2 stars 3 stars 4 stars 5 stars
comments

Stop Bass Tab

STOP
Black Rebel Motorcycle Club
Bass Tab

tabbed by Michael Massberg
          michaelmassberg@gmx.de

Be sure to check out http://www.brmc-basstabs.de.vu
for more B.R.M.C. Basstabs and mp3s to 
every single riff!

Intro/Verse

G-----------------------------------
D----------------------5------------
A--0-0-3-0-5-3-0-3-0-0---5-5-3-0-3--
E-----------------------------------



Chorus "We don't know when to stop..."

G---------------------------------------------------
D---------------------------------------------------
A--10-10-10-10-10-10-10-10-10-10-10-10-10-10-10-10--
E---------------------------------------------------

 -----------------------------------
 -----------------------------------
 --5-5-5-5-5-5-5-5-5-5-5-5-5-5-5-5--
 -----------------------------------

 -----------------------------------
 -----------------------------------
 --3-3-3-3-3-3-3-3-3-3-3-3-3-3-3-3--
 -----------------------------------

 -----------------------------------
 -----------------------------------
 --5-5-5-5-5-5-5-5-5-5-5-5-5-5-5-5--
 -----------------------------------


[ Tab from: http://www.guitartabs.cc/tabs/b/black_rebel_motorcycle_club/stop_btab.html ]
Bridge "Try to keep your head up high..."

G-----------------------------------
D-----------------------------------
A--3-3-3-3-3-3-3-3-3-3-3-3-3-3-3-3--
E-----------------------------------

 -------------------------------------
 --5h7-7-7-7-7-7-7-7-7-7-7-7-7-5------
 --------------------------------7-6--
 -------------------------------------

 -----------------------------------
 -----------------------------------
 --3-3-3-3-3-3-3-3-3-3-3-3-3-3-3-3--
 -----------------------------------

 -----------------------------------
 -----------------------------------
 --5-5-5-5-5-5-5-5-5-5-5-5-5-3-3-3--
 -----------------------------------



Ending (3:53)

G---------------------------------
D-----------9---------9------10-9-
A--12-12-12-----12-10----12-------    4x
E---------------------------------

G-------------------------------------
D--10h12-12-10---9-------12--10--9----
A--------------------12------------12-
E-------------------------------------

 --------------------------------12--14~-
 --12h14-14-12---10--9---14--12----------
 ----------------------------------------
 ----------------------------------------


Comments