Black Rebel Motorcycle Club - Spread Your Love Chords & Tabs

 

Spread Your Love Chords & Tabs

Black Rebel Motorcycle Club Chords & Tabs

Version: 6 Type: Bass Tab 0 ratings
1 star 2 stars 3 stars 4 stars 5 stars
comments

Spread Your Love Bass Tab

Spread Your Love
Black Rebel Motorcycle Club
Take Them On,On Your Own


tabbed by TomAnthony

x=muffle string
/=slide up
^=hammer on

Intro
G------------------------------------------------------------|
D------------------------------------------------------------|
A--5--5-5-5-x-5-5-5-x-5--------5--5-5-5-x-5-5-5-x-5----------|
E----------------------x-1--3-----------------------x-1------|

G------------------------------------------------------------|
D------------------------------------------------------------|
A--5--5-5-5-x-5-5-5-x-5--------5--5-5-5-x-5-5-5-x-5--x-8--10-|
E----------------------x-1--3--------------------------------|

Verse
G------------------------------------------------------------|
D------------------------------------------------------------|
A--5--5-5-5-x-5-5-5-x-5--------5--5-5-5-x-5-5-5-x-5----------|
E----------------------x-1--3-----------------------x-1--3---|

G------------------------------------------------------------|
D------------------------------------------------------------|
A--5--5-5-5-x-5-5-5-x-5--------5--5-5-5-x-5-5-5-x-5----------|
E----------------------x-1--3-----------------------x-1--3---|

 Spread your love like a fever...dont you ever come down
G------------------------------------------------------------|
D------------------------------------------------------------|
A--5--5-5-5-x-5-5-5-x-5--------5--5-5-5-x-5-5-5-x-5----------|
E----------------------x-1--3-----------------------x-1--3---|

 Spread your love like a fever...dont you ever come down
G------------------------------------------------------------|
D------------------------------------------------------------|
A--5--5-5-5-x-5-5-5-x-5--------5--5-5-5-x-5-5-5-x-5----------|
E----------------------x-1--3-----------------------x-1--3---|

 I spread my love like a fever..oh...I aint ever comin down
G--------------------------------------------------------------|
D--------------------------------------------------------------|
A--5--5-5-5-x-5-5-5-x-5-x--8-10--5--5-5-5-x-5-5-5-x-5----------|
E----------------------------------------------------x-1--3----|

G------------------------------------------------------------|
D------------------------------------------------------------|
A--5--5-5-5-x-5-5-5-x-5--------5--5-5-5-x-5-5-5-x-5----------|
E----------------------x-1--3-----------------------x-1--3---|

She spread her love like a...I only saw it once
G------------------------------------------------------------|
D------------------------------------------------------------|
A--5--5-5-5-x-5-5-5-x-5--------5--5-5-5-x-5-5-5-x-5----------|
E----------------------x-1--3-----------------------x-1--3---|
[ Tab from: http://www.guitartabs.cc/tabs/b/black_rebel_motorcycle_club/spread_your_love_btab_ver_6.html ]
She spread her love like a...Shes bad but not enough
G------------------------------------------------------------|
D------------------------------------------------------------|
A--5--5-5-5-x-5-5-5-x-5--------5--5-5-5-x-5-5-5-x-5----------|
E----------------------x-1--3-----------------------x-1--3---|

 Spread your love like a fever...dont you ever come down
G------------------------------------------------------------|
D------------------------------------------------------------|
A--5--5-5-5-x-5-5-5-x-5--------5--5-5-5-x-5-5-5-x-5----------|
E----------------------x-1--3-----------------------x-1--3---|

 Spread your love like a fever...dont you ever come down
G------------------------------------------------------------|
D------------------------------------------------------------|
A--5--5-5-5-x-5-5-5-x-5--------5--5-5-5-x-5-5-5-x-5----------|
E----------------------x-1--3-----------------------x-1--3---|

 I spread my love like a fever..oh...I aint ever comin down
G--------------------------------------------------------------|
D--------------------------------------------------------------|
A--5--5-5-5-x-5-5-5-x-5-x--8-10--5--5-5-5-x-5-5-5-x-5----------|
E----------------------------------------------------x-1--3----|

Bridge
"D, 2 bars"

G--------------------------------------------------------------|
D--------------------------------------------------------------|
A-5--5-5-5-x-5-5-5-5/17-17-17-17-17-17-17-17-17-17-17-17-------|
E--------------------------------------------------------------|
"C, 2 bars"
G--------------------------------------------------------------|
D--------------------------------------------------------------|
A-x-3--3-3-3-3-3--15^17-17-15-15---15--15----------------------|
E--------------------------------17--16------------------------|
 "G, 2 bars"
G--------------------------------------------------------------|
D--------------------------------------------------------------|
A--------------------------------------------------------------|
E--3-x-3-3-3-x-3-x-1-1-1--3-3-3--------------------------------|

G------------------------------------------------------------|
D------------------------------------------------------------|
A--5--5-5-5-x-5-5-5-x-5--------5--5-5-5-x-5-5-5-x-5----------|
E----------------------x-1--3-----------------------x-1--3---|

G------------------------------------------------------------|
D------------------------------------------------------------|
A--5--5-5-5-x-5-5-5-x-5--------5--5-5-5-x-5-5-5-x-5----------|
E----------------------x-1--3-----------------------x-1--3---|

Verse

Chorus

ect...

Fin~


questions,suggestions and complaints to:
                                dirtyaldante@hotmail.com
Comments