Black Rebel Motorcycle Club - Spread Your Love Chords & Tabs

 

Spread Your Love Chords & Tabs

Black Rebel Motorcycle Club Chords & Tabs

Version: 3 Type: Bass Tab 0 ratings
1 star 2 stars 3 stars 4 stars 5 stars
comments

Spread Your Love Bass Tab

   
E|------------------1~3|
A|-5---5-5-5-55------|
D|----------------------|
G|----------------------|

THEN WHEN THE HYMONKIA COMES IN IT’S
[ Tab from: http://www.guitartabs.cc/tabs/b/black_rebel_motorcycle_club/spread_your_love_btab_ver_3.html ]
E|------------------------------------------------------------
A|-5-5-5-5-5-5-5-5-5-5-5-5-5-5-5-5-3-3-3-3-3-3-3-3
D|------------------------------------------------------------
G|------------------------------------------------------------

E|-------------3-----1~3|
A|-1---3---5-----------  |
D|------------------------|
G|------------------------|

THEN BACK TO

E|---------------------1~3|
A|-5---5-5-5---5-5-5----|
D|-------------------------|
G|-------------------------|

That’s it you will have to work the timing out for your self.
KEEP on RoCkInG black rebel motorcycle club ! ! !  
Comments