Black Rebel Motorcycle Club - Spread Your Love Chords & Tabs

 

Spread Your Love Chords & Tabs

Black Rebel Motorcycle Club Chords & Tabs

Version: 1 Type: Bass Tab 0 ratings
1 star 2 stars 3 stars 4 stars 5 stars
comments

Spread Your Love Bass Tab

SPREAD YOUR LOVE
Black Rebel Motorcycle Club
Bass Tab

tabbed by Michael Massberg
          michaelmassberg@gmx.de

Be sure to check out http://www.brmc-basstabs.de.vu
for more B.R.M.C. Basstabs and mp3s to 
every single riff!

Intro

G----------------------------------
D----------------------------------
A--5---5-5-5---5-5-5---0-5---------
E--------------------------1---3---

 ----------------------------------
 ----------------------------------
 --5---5-5-5---5-5-5---0-5---------
 --------------------------1-------

 ----------------------------------
 ----------------------------------
 --5---5-5-5---5-5-5---0-5---------
 --------------------------1---3---

 ----------------------------------
 --------------------------3---5---
 --5---5-5-5---5-5-5---0-5---------
 ----------------------------------



Verse (use these two riffs randomly)

G----------------------------------
D--------------------------3---5---
A--5---5-5-5---5-5-5---0-5---------
E----------------------------------

G----------------------------------
D----------------------------------
A--5---5-5-5---5-5-5---0-5---------
E--------------------------1---3---



Bridge

G--------------------------------------
D--------------------------------------
A--15h17-17-17-17-17-17-17-17-17-17-17-
E--------------------------------------
[ Tab from: http://www.guitartabs.cc/tabs/b/black_rebel_motorcycle_club/spread_your_love_btab.html ]
 --------------------------------------
 -----15h17-18-18-18-18-18-18-18-15h17-
 --17----------------------------------
 --------------------------------------

 ---------------------------------
 --10---10-10-10---10-10-10-8-----
 -----------------------------10-
 ---------------------------------

 -----------------------------------
 -----------------------------------
 --5/10---10-10-10-10-5---8-8-10-10-
 -----------------------------------



Ending (3:07)

G----------------------------------
D--------------------------3---5---
A--5---5-5-5---5-5-5---0-5---------
E----------------------------------

 ---------------------------------------------
 ---------------------------------------------
 --5---5-5-5---5-5-5---5-5/17-17-17-17-17-17-
 ---------------------------------------------

 ----------------------------------
 --------------------------3---5---
 --5---5-5-5---5-5-5---0-5---------
 ----------------------------------

 ----------------------------------
 --------------------------3---5---
 --5---5-5-5---5-5-5---0-5---------
 ----------------------------------

 ----------------------------------
 ----------------------------------
 --5---5-5-5---5-5-5---0-5---------
 --------------------------1---3---

 --------------------------------------
 --------------------------3---5p3-----
 --5---5-5-5---5-5-5---0-5---------5---
 --------------------------------------


Comments