Black Rebel Motorcycle Club - Rise Or Fall Chords & Tabs

 

Rise Or Fall Chords & Tabs

Black Rebel Motorcycle Club Chords & Tabs

Version: 2 Type: Bass Tab 0 ratings
1 star 2 stars 3 stars 4 stars 5 stars
comments

Rise Or Fall Bass Tab

   
---Rise Or Fall
---Black Rebel Motorcycle Club
---Take Them On On Your Own

tabbed by TomAnthony

Intro/Verse

G----------------------------------------------------------------------|
D----------------5-5-----------------------------5-5-----7-7-7-5-------|
A-----5-5-7-7------------5-5-7-7-----5-5-7-7---------------------------|
E-0-0---------0-0----0-0---------0-0---------0-0-----0-0---------------|

G----------------------------------------------------------------------|
D----------------5-5-----------------------------5-5-----7-7-7-5-------|
A-----5-5-7-7------------5-5-7-7-----5-5-7-7---------------------------|
E-0-0---------0-0----0-0---------0-0---------0-0-----0-0---------------|

Chorus
  Mothers  teach  you  to crawl
G----------------------------------------------------|
D----------------------------------------------------|
A-16-16-16-16-16-16-16-16-15-15-15-15-15-15-15-15----|
E----------------------------------------------------|

 Fathers teach you the rise or fall
G----------------------------------------------------|
D----------------------------------------------------|
A-12-12-12-12-12-12-12-12-12-12-12-12-12-12-12-12----|
E----------------------------------------------------|

  Mothers grieve  for  us  all
G----------------------------------------------------|
D----------------------------------------------------|
A-16-16-16-16-16-16-16-16-15-15-15-15-15-15-15-15----|
E----------------------------------------------------|

  Fathers teach you you're on your own....
G----------------------------------------------------|
D----------------------------------------------------|
A-12-12-12-12-12-12-12-12-12-12-12-12-12-12-12-12----|
E----------------------------------------------------|

Verse 2

Chorus 2
    All my fears  awakening,          I've let them back
G-------------------------------------------------------------------------|
D-9-9-9-9-9-9-9-9-10-10-10-10-10-10-10-10-7-7-7-7-7-7-7-7-6-6-6-6-6-6-6-6-|
A-------------------------------------------------------------------------|
E-------------------------------------------------------------------------|

   All has flashed before my eyes,    I never had
G-------------------------------------------------------------------------|
D-9-9-9-9-9-9-9-9-10-10-10-10-10-10-10-10-7-7-7-7-7-7-7-7-6-6-6-6-6-6-6-6-|
A-------------------------------------------------------------------------|
E-------------------------------------------------------------------------|
[ Tab from: http://www.guitartabs.cc/tabs/b/black_rebel_motorcycle_club/rise_or_fall_btab_ver_2.html ]
  Theres no consolation,              No misconfide
G------------------------------------------------------------------------|
D------------------------------------------------------------------------|
A------------------------------------------------------------------------|
E-7-7-7-7-7-7-7-7-8-8-8-8-8-8-8-8-5-5-5-5-5-5-5-5-4-4-4-4-4-4-4-4--------|

  Walk my son ,I've tought you well,Your on your way down....
G------------------------------------------------------------------------|
D------------------------------------------------------------------------|
A------------------------------------------------------------------------|
E-7-7-7-7-7-7-7-7-8-8-8-8-8-8-8-8-3-3-3-3-3-3-3-3-2-2-2-2-2-2-2-2--------|

Verse 3

Chorus 3

Outro
G----------------------------------------------------------------------|
D----------------5-5-----------------------------5-5-----7-7-7-5-------|
A-----5-5-7-7------------5-5-7-7-----5-5-7-7---------------------------|
E-0-0---------0-0----0-0---------0-0---------0-0-----0-0---------------|

                                                 Bang your alive!
G----------------------------------------------------------------------|
D----------------5-5-----------------------------5-5-----7-7-7-5-------|
A-----5-5-7-7------------5-5-7-7-----5-5-7-7---------------------------|
E-0-0---------0-0----0-0---------0-0---------0-0-----0-0---------------|

                                                 Bang your alive!
G----------------------------------------------------------------------|
D----------------------------------------------------------------------|
A-------------------------5-5-5-5-7-7-7-7-7-7-7-7-7-7-7-7-7-7-7-7------|
E-3-3-3-3-3-3-3-3-5-5-5-5----------------------------------------------|

                                                 Bang your alive!
G----------------------------------------------------------------------|
D----------------------------------------------------------------------|
A-------------------------5-5-5-5-7-7-7-7-7-7-7-7-7-7-7-7-7-7-7-7------|
E-3-3-3-3-3-3-3-3-5-5-5-5----------------------------------------------|

                      Bang your alive!           Bang your alive!
G----------------------------------------------------------------------|
D----------------------------------------------------------------------|
A-------------------------5-5-5-5-7-7-7-7-7-7-7-7-7-7-7-7-7-7-7-7------|
E-3-3-3-3-3-3-3-3-5-5-5-5----------------------------------------------|

                      Bang your alive!           Bang your alive!
G----------------------------------------------------------------------|
D----------------------------------------------------------------------|
A-------------------------5-5-5-5-7-7-7-7-7-7-7-7-7-7-7-7-7-7-7-7----7-|
E-3-3-3-3-3-3-3-3-5-5-5-5----------------------------------------------|

Fin*

questions,suggestions and complaints to:

                                   dirtyaldante@hotmail.com
Comments