Black Rebel Motorcycle Club - Rise Or Fall Chords & Tabs

 

Rise Or Fall Chords & Tabs

Black Rebel Motorcycle Club Chords & Tabs

Version: 1 Type: Bass Tab 0 ratings
1 star 2 stars 3 stars 4 stars 5 stars
comments

Rise Or Fall Bass Tab

RISE OR FALL
Black Rebel Motorcycle Club
Bass Tab

tabbed by Michael Massberg
          michaelmassberg@gmx.de

Be sure to check out http://www.brmc-basstabs.de.vu
for more B.R.M.C. Basstabs and mp3s to 
every single riff!

Intro/Verse

G------------------------------------
D------------------------------------
A------5-5-7-7-----10-10-----5-5-7-7-
E--0-0---------0-0-------0-0---------

 ----------------------------------------
 ----------------------------------------
 ------5-5-7-7-----10-10-----12-12-12-10-
 --0-0---------0-0-------0-0-------------



Chorus "Mothers teach you to crawl..."

G--------------------------------------------------
D--11-11-11-11-11-11-11-11-10-10-10-10-10-10-10-10-
A--------------------------------------------------
E--------------------------------------------------

 ----------------------------------
 --7-7-7-7-7-7-7-7-7-7-7-7-7-7-7-7-
 ----------------------------------
 ----------------------------------



Bridge "All my fears awakening..."
[ Tab from: http://www.guitartabs.cc/tabs/b/black_rebel_motorcycle_club/rise_or_fall_btab.html ]
G------------------------------------------
D--9-9-9-9-9-9-9-9-10-10-10-10-10-10-10-10-
A------------------------------------------
E------------------------------------------

 ----------------------------------
 --7-7-7-7-7-7-7-7-6-6-6-6-6-6-6-6-
 ----------------------------------    2x
 ----------------------------------


G----------------------------------
D----------------------------------
A--2-2-2-2-2-2-2-2-3-3-3-3-3-3-3-3-
E----------------------------------

 ----------------------------------
 ----------------------------------
 ----------------------------------
 --5-5-5-5-5-5-5-5-4-4-4-4-4-4-4-4-

 ----------------------------------
 ----------------------------------
 --2-2-2-2-2-2-2-2-3-3-3-3-3-3-3-3-
 ----------------------------------

 ----------------------------------
 ----------------------------------
 ----------------------------------
 --3-3-3-3-3-3-3-3-2-2-2-2-2-2-2-2-



Ending "Bang you're alive..."

G----------------------------------
D----------------------------------
A--------------------------5-5-5-5-
E--3-3-3-3-3-3-3-3-5-5-5-5---------

 ----------------------------------
 ----------------------------------
 --7-7-7-7-7-7-7-7-7-7-7-7-7-7-7-7-    4x
 ----------------------------------
Comments