Black Rebel Motorcycle Club - Red Eyes And Tears Chords & Tabs

 

Red Eyes And Tears Chords & Tabs

Black Rebel Motorcycle Club Chords & Tabs

Version: 1 Type: Bass Tab 0 ratings
1 star 2 stars 3 stars 4 stars 5 stars
comments

Red Eyes And Tears Bass Tab

Song: Red Eyes And Tears
Artist: Black Rebel Motorcycle Club
Album: B.R.M.C.
Tab by: Michael Massberg (michaelmassberg@gmx.de)

INTRO/VERSE
G--------------------------------------|
D--------------------------------------|
A---------------------------------6----|
E--8-8---8-(8)-8---8-(8)-8---8--6---6--|


DURING THE HIGH GUITAR PART
G-----------------------------------|
D-----------------------------------|
A-----------------------------------|
E--6-6-6-6-6-6-6-6-8-8-8-8-8-8-8-8--|

G-----------------------------------|
D-----------------------------------|
A----------------------------9-9----|
E--6-6-6-6-6-6-6-6-8-8-8-8-8-----8--|

G-----------------------------------|
D-----------------------------------|
A-----------------------------------|
E--6-6-6-6-6-6-6-6-8-8-8-8-8-8-8-8--|

[ Tab from: http://www.guitartabs.cc/tabs/b/black_rebel_motorcycle_club/red_eyes_and_tears_btab.html ]
AFTER THE SECOND HIGH GUITAR PART
G-----------------------------------8----|
D--10-10--10-10-10--10-10-10--10--8---8--|
A----------------------------------------|
E----------------------------------------|

G------------------------------------------|
D--10-10--10-10-10--10-10-10--10-8---------|
A----------------------------------10-8-6--|
E------------------------------------------|

======

G-----------------------------------------|
D-----------------------------------------|
A--8-8-8-8-9-9-9-9-10-10-10-10-8-8-8-8----|
E-----------------------------------------|

G------------------------------|  2x
D------------------------------|
A---------------------------6--|
E--8-8--8-8-8--8-8-8--6--8-----|

======

OUTRO
G-----------------|
D-----------------|
A-----------------|
E--6h8--6h8--6h8--| etc.
Comments