Black Rebel Motorcycle Club - Love Burns Chords & Tabs

 

Love Burns Chords & Tabs

Black Rebel Motorcycle Club Chords & Tabs

Version: 2 Type: Tab 0 ratings
1 star 2 stars 3 stars 4 stars 5 stars
comments

Love Burns Tab

   
INTRO

E---------------------------
B---------------------------
G---------------------------
D-----0-9-9-9-9-9-9-9-9-9-9-
A-----0-7-7-7-7-7-7-7-7-7-7-
E-0-0-0-0-0-0-0-0-0-0-0-0-0-

E--------------------------------
B--------------------------------
G--------------------------------
D--6-6-6-6-6-6-6--5-5-5-5-5-5-5--
A--4-4-4-4-4-4-4--3-3-3-3-3-3-3--
E--------------------------------


Verse

E---------------------------
B---------------------------
G---------------------------
D-----0-9-9-9-9-9-9-9-9-9-9-
A-----0-7-7-7-7-7-7-7-7-7-7-
E-0-0-0-0-0-0-0-0-0-0-0-0-0-
[ Tab from: http://www.guitartabs.cc/tabs/b/black_rebel_motorcycle_club/love_burns_tab_ver_2.html ]
E--------------------------------
B--------------------------------
G--------------------------------
D--6-6-6-6-6-6-6--5-5-5-5-5-5-5--
A--4-4-4-4-4-4-4--3-3-3-3-3-3-3--
E--------------------------------

CHOURS

E-------------------------------
B-------------------------------
G-------------------------------
D-------------------------------
A-2-2-2--5-5-5--7-7-7--5-5-5-5--
E-0-0-0--3-3-3--5-5-5--3-3-3-3--


E-------------------------------------------------------
B-------------------------------------------------------
G-------------------------------------------------------
D-------------------------------------------------------
A-2-2-2-2-2-2-2-5-5-5-5-5-5-5-7-7-7-7-7-7-7--5-5-5-2-2-2
E-0-0-0-0-0-0-0-3-3-3-3-3-3-3-5-5-5-5-5-5-5--3-3-3-4-4-4

i think this is right i saw him play sumthing like this
Comments