Black Rebel Motorcycle Club - Head Up High Chords & Tabs

 

Head Up High Chords & Tabs

Black Rebel Motorcycle Club Chords & Tabs

Version: 1 Type: Bass Tab 0 ratings
1 star 2 stars 3 stars 4 stars 5 stars
comments

Head Up High Bass Tab

HEAD UP HIGH
Black Rebel Motorcycle Club
Bass Tab

tabbed by Michael Massberg
          michaelmassberg@gmx.de

Be sure to check out http://www.brmc-basstabs.de.vu
for more B.R.M.C. Basstabs and mp3s to 
every single riff!

Intro/Verse

G--/12-10-------------------------------
D---------13---12---10------------------
A----------------------10-----11/15-----
E-------------------------8-----------8-



Bridge "This song is not about you..."

G--------------------------------------------
D--------------------------------------------
A--10---10---10---10-10-10-3-------3---3-3-3-
E--------------------------------------------
[ Tab from: http://www.guitartabs.cc/tabs/b/black_rebel_motorcycle_club/head_up_high_btab.html ]
 ------------------------------------------
 ------------------------------------------
 --2-2-2-2-2-2-2-2-11-11-11-11-11-11-11-11-
 ------------------------------------------

G-----------------------------------------
D--/11-11-11-11-10----10------------------
A------------------10-----3-3-3-5-5-6-6-6-    2x
E-----------------------------------------

G-----------------------------------------
D--/11-11-11-11-10----10------------------
A------------------10-----3-3-3-3-3-3-3-3-
E-----------------------------------------



Chorus

G----------------------------------------
D------3-5-8-10-10------8----8-10-8------
A--3-6-------------8-10---10--------10-8-
E----------------------------------------

 ----------------------------------------
 ------3-5-8-10-10-8-10-8------10-8------ 
 --3-6--------------------10-8------10-8-
 ----------------------------------------


Comments