Black Rebel Motorcycle Club - Generation Chords & Tabs

 

Generation Chords & Tabs

Black Rebel Motorcycle Club Chords & Tabs

Version: 1 Type: Bass Tab 0 ratings
1 star 2 stars 3 stars 4 stars 5 stars
comments

Generation Bass Tab

GENERATION
Black Rebel Motorcycle Club
Bass Tab

tabbed by Michael Massberg
          michaelmassberg@gmx.de

Be sure to check out http://www.brmc-basstabs.de.vu
for more B.R.M.C. Basstabs and mp3s to 
every single riff!

Intro/Verse

G----------------------------------
D--8---8---6h8-8-8---8-8-8-8---6h8-
A----------------------------8-----
E----------------------------------

last time before chorus
 ----------------------------------
 --8---8---6h8-8-8---8-8-8-8p6-----
 ------------------------------8--
 ----------------------------------



Chorus "I've had a realisation..."

G----------------------------
D----------------------------
A--4---4---4---6-6-6---------
E----------------------------

 --------------------------------
 --------------------------------
 --------------------------------
 --4h6-6-6---6-6---6-6-6-6-6-6-6-

 ----------------------------
 ----------------------------
 --4---4---4---6-6-6-6-6-6-6-
 ----------------------------

 --------------------------------
 --6h8-8-8p6-8-8---8-8-8-8p6-----
 ----------------------------8p6-
 --------------------------------

 ----------------------------
 ----------------------------
 --6---6---6-6---------------
 --------------4h6-6---6-6-6-

 ----------------------------
 ----------------------------
 --4---4---4-4---6-6-6-6-6-6-
 ----------------------------

 -----------------------------
 -----------------------------
 -----------------------------
 --4---4---4----4h6-6---6-6-6-

 -----------------------------
 -----------------------------
 --4---4---4----4h6-6---6-6-6-
 -----------------------------

 --------------------------------------------------
 --11h13-13-13-13-13-13-13-13-13-13-13-13-11-------
 --------------------------------------------13-11-
 --------------------------------------------------



After Chorus
[ Tab from: http://www.guitartabs.cc/tabs/b/black_rebel_motorcycle_club/generation_btab.html ]
G----------------------------------
D--8---8---6h8-8-8---8-8-8-8---6h8-
A----------------------------8-----
E----------------------------------

 -----------------------8^10^8-6---
 --8---8---6h8-8-8---6-------------
 ----------------------------------
 ----------------------------------



Interlude

G-------------------------------
D-------------------------------
A--4---4---4---6-6-6------------    5x
E----------------------(4h)6~---



Ending (3:53)

G-----------------------------
D--8-8-8----------------------
A--------8---x-6-x-4--x-------
E-----------------------4-4-4-

G-----------------------------
D-----------------------------
A--------8---x-6-x-4--x-------    2x
E--4h6-6----------------4-4-4-

G-------------------------------
D-----------------------8p6---6-
A--------8---x-6--6-6-8-----8---
E--4h6-6------------------------

 -----------------------------
 --8-6-8----------------------
 --------8---x-6-x-4--x-------
 -----------------------4-4-4-

 -----------------------------
 -----------------------------
 --------8---x-6-x-4--x------- 
 --4h6-6----------------4-4-4-

 ----------------------------8p6---
 ----------------------8-6-8-----8-
 --------8---x-6-x-4---------------
 --4h6-6---------------------------

G--------8h6-------
D--8-6-8-----8-8---
A------------------    7x
E------------------

G------6-6-6-----------6-6-6-----
D--6-6-------8-8---6-6-------8-8-
A--------------------------------
E--------------------------------

 --------------------------------
 --8-6-6-6-6h8-8---8-6-6-6-6h8-8-
 --------------------------------    2x
 --------------------------------

G------6-6-6---------------------
D--6-6-------8-8---8-6-6-6-6h8-8-
A--------------------------------
E--------------------------------

 ---------------
 --8-6-6-6-6h8~-
 ---------------
 ---------------


Comments