Black Rebel Motorcycle Club - Fault Line Chords & Tabs

 

Fault Line Chords & Tabs

Black Rebel Motorcycle Club Chords & Tabs

Version: 2 Type: Tab 0 ratings
1 star 2 stars 3 stars 4 stars 5 stars
comments

Fault Line Tab

Fault Line - Black Rebel Motorcycle Club
(track 6 on Howl)

( ) indicates note may occur in some places. (very lightly when it does)

e|-----2--(0)------0--|
B|-------3-------3----|
G|*------------------*|
D|*--0-------0h3-----*|
A|--------------------|
E|--------------------|
I've been waitin' on the fault line
  Let the needle take me on
I'll be standing with my dyin' bell
  If you care to come along



e|------0-----0|------0-----0|---2--(0)------0|---2--(0)------0-|
B|-----3-----3-|-----3-----3-|-----3-------3--|-----3-------3---|
G|*------------|-------------|----------------|----------------*|
D|*-------0h2--|-------------|-0-------0h3----|-0-------0h3----*|
A|--0h3--------|--------0h2--|----------------|-----------------|
E|-------------|--0h3*-------|----------------|-----------------| 
Racin' with the risin' tide to my father's door
Racin' with the risin' tide to my father's door


[ Tab from: http://www.guitartabs.cc/tabs/b/black_rebel_motorcycle_club/fault_line_tab_ver_2.html ]
I've been lyin' in the bright lights
  See my shadow from below
Never wanted from another man
  Never wanted from my own
Drownin' in the risin' tide at my father's door
Drownin' in the risin' tide at my father's door

Through a window to the last mile
Little picture on the wall
From the banks on the far side
See the lights come ashore
Racin' from the risin' tide to my father's door
Racin' from the risin' tide to my father's door
Racin' with the risin' tide to my father's door

Outro:

e|---2---0-------0|--0---0--------0|--0---0---0---0-|--3---3---3---3-|
B|-----3-------1--|----1--------1--|----1-------1---|----3-------3---|
G|*-----------0---|------------0---|------------0---|---------------*|
D|*-0-----0h2-----|-2------0h2-----|--------0h2-----|------------0--*|
A|----------------|----------------|-3--------------|--------0h2-----|
E|----------------|----------------|----------------|-3--------------|
          ^ ^ ^            ^ ^ ^            ^ ^ ^            ^ ^ ^
          three eigth notes   
	
	   ^ hammer only,   ^ dont finger pick^ the lower E   ^


{*Note: (0h3 or EhG) is played very quickly with very little open note; a quick snap to the G}


tabbed by Jason Shinar, 13 Oct 2005
jmshinar@yahoo.com for comments/corrections.
Comments