Black Plague The - Hard Rock Chords & Tabs

 

Hard Rock Chords & Tabs

Black Plague The Chords & Tabs

Version: 1 Type: Bass Tab 0 ratings
1 star 2 stars 3 stars 4 stars 5 stars
comments

Hard Rock Bass Tab

   
Artist-The Black Pleague
Song-Hard Rock
Song ritten made by-Rayne Nirmaier
Tabbed by-Rayne Nirmaier
...................................


the First two time's you wanna muffle 
it with your hand.

verse 1
G------------------------)  X12 
D------------------------) 
A------------------------)
E-0-0-0-0-0-0-0-2-3------)


Solo.
G------------------------------)
D------------------------------)
A------------------------------)
A-2-2-2-2-2-3-3-3-3-3-5-5-5-5-5)

[ Tab from: http://www.guitartabs.cc/tabs/b/black_plague_the/hard_rock_btab.html ]
in this time there's a Drum Solo
that's about 300 minute's long



solo2.
G------------------------------)
D------------------------------)
A------------------------------)
E-5-5-5-5-5-3-3-3-3-3-2-2-2-2-2)

verse 3
G------------------------)  X12 
D------------------------) 
A------------------------)
E-0-0-0-0-0-0-0-2-3------)

then end with a!!
G-21-19-12-10-8-7-5-3-2-1-)
D-------------------------)
A-------------------------)
E-------------------------)


then bang the guitar on all String Once!!
Comments