Black Lips - Throw It Away Chords & Tabs

 

Throw It Away Chords & Tabs

Black Lips Chords & Tabs

Version: 1 Type: Tab

Throw It Away Tab

   
Black Lips - Throw It Away

Verse - D A A# F E A A# G
Chorus - D F E A
         D F A# G


E||------------------------|---------------------------|
B||------------------------|---------------------------|
G||--7----7--7-------------|-------------10----10--10--|
D||--7----7--7--7----7--7--|--8----8--8--10----10--10--|
A||--5----5--5--7----7--7--|--8----8--8--8-----8---8---|
E||-------------5----5--5--|--6----6--6----------------|

[ Tab from: http://www.guitartabs.cc/tabs/b/black_lips/throw_it_away_tab.html ]
                                                                              
------------------------|------------------------|---------------------------|
------------------------|------------------------|---------------------------|
--9----9--9-------------|------------------------|--7----7--7--10----10--10--|
--9----9--9--7----7--7--|--8----8--8--5----5--5--|--7----7--7--10----10--10--|
--7----7--7--7----7--7--|--8----8--8--5----5--5--|--5----5--5--8-----8---8---|
-------------5----5--5--|--6----6--6--3----3--3--|---------------------------|


                                                                               
------------------------|---------------------------|------------------------||
------------------------|---------------------------|------------------------||
--9----9--9-------------|--7----7--7--10----10--10--|------------------------||
--9----9--9--7----7--7--|--7----7--7--10----10--10--|--8----8--8--5----5--5--||
--7----7--7--7----7--7--|--5----5--5--8-----8---8---|--8----8--8--5----5--5--||
-------------5----5--5--|---------------------------|--6----6--6--3----3--3--||