Black Light Burns - The Mark Chords & Tabs

 

The Mark Chords & Tabs

Black Light Burns Chords & Tabs

Version: 1 Type: Tab

The Mark Tab

 "The Mark" by Black Light Burns,
 from "Cruel Melody"

 tabbed by MafiaMaster (bourrindercii@gmail.com)


tuning : low to high: C# F# B E G# C# (standard Wes Borland)
 
 Intro #1
 
#Gtr1 (clean)

------------------------------------------------------|
------------------------------------------------------|
------------------------------------------------------|
-2-2-2-2-2-2-2-2-2-2-2-2-2-2-2-2-2-2-2-2-2-2-2-2-2-2-2|
------------------------------------------------------|
------------------------------------------------------|


 Intro #2
 
#Gtr1 (clean)

------------------------------------------------------|
------------------------------------------------------|
------------------------------------------------------|
-2-2-2-2-2-5-5-5-5-5-5-5-55-0-0-2-2-0-0-2-2-0-0-2-2-0-|
------------------------------------------------------|
------------------------------------------------------|

#Gtr2 (heavy distortion)

------------------------------------------------------|
------------------------------------------------------|
------------------------------------------------------|
-2-2---2-2---5-5---5-5--5xx-----2-2-----2-2-----2-2---|
-2-2---2-2---5-5---5-5--5xx-----2-2-----2-2-----2-2---|
-----0-----3-----3----------0-0-----0-0-----0-0-----0-|


[ Tab from: http://www.guitartabs.cc/tabs/b/black_light_burns/the_mark_tab.html ]
 Verse
 
#Gtr1 (clean)

------------------------------------------------------|
------------------------------------------------------|
------------------------------------------------------|
-2-2-2-2-2-5-5-5-5-5-5-5-55-0-0-2-2-0-0-2-2-0-0-2-2-0-|
------------------------------------------------------|
------------------------------------------------------|

#Gtr2 (heavy distortion)

------------------------------------------------------|
------------------------------------------------------|
------------------------------------------------------|
-2-2---2-2---5-5---5-5--5xx-----2-2-----2-2-----2-2---|
-2-2---2-2---5-5---5-5--5xx-----2-2-----2-2-----2-2---|
-----0-----3-----3----------0-0-----0-0-----0-0-----0-|


 Chorus

(heavy distortion)

------------------------------------------------------|
------------------------------------------------------|
------------------------------------------------------|
--4------4-----------3333---3-(1)/17~~~~~~~(\3)-------|
--4------4-----------3333---3-(1)/17~~~~~~~(\3)-------|
0-2-0000-2-0-<4>---0-1111-0-1-(1)/17~~~~~~~(\3)-------|


<4> => Natural Harmonic
/ => Slide 

http://www.myspace.com/blacklightburns
http://www.blacklightburns.com/
http://blacklightburns.online.fr/

Record Label	Interscope
Type of Label	Major