Black Label Society - World Of Trouble Chords & Tabs

 

World Of Trouble Chords & Tabs

Black Label Society Chords & Tabs

Version: 1 Type: Tab 0 ratings
1 star 2 stars 3 stars 4 stars 5 stars
comments

World Of Trouble Tab

From: www.BlackLabelSociety.net

Standard tuning

intro:
e-------------------------------------------------------------------|
B-------------------------------------------------------------------|
G-------------------------------------------------------------------|
D--4--4--4--4-----4--4--4--4----------7---------9-------------------|
A--4--4--4--4-----4--4--4--4----------------------------------------|
E--0--2--0--2-----0--2--0--2----2--5------5--7----------------------|
                                                                    |
e-------------------------------------------------------------------|
B-------------------------------------------------------------------|
G-------------------------------------------------------------------|
D-------------------------------------------------------------------|
A-----------------------------2------2------------------------------|
E-0-2-0--2-2-2~~---0-2-0---2------0---------------------------------|

Repeat 2x

Scrape pick on tailpeice.  If you have no tailpeice, put your
finger on the 3rd fret and pick, you can achieve a similar effect.

e-----------------x-------------------------------------------------|
B------------------x------------------------------------------------|
G-------------------x-----------------------------------------------|
D--4-4-4--4-4-4~-----x----------------------------------------------|
A--4-4-4--4-4-4~------x------------------6~---6~--------------------|
E--2-2-2--2-2-2~-------x--x-x---x-x--x---4~---4~--------------------|


e-----------------x-------------------------------------------------|
B------------------x------------------------------------------------|
G-------------------x-----------------------------------------------|
D--4-4-4--4-4-4~-----x----------------------------------------------|
A--4-4-4--4-4-4~------x------------------9~---9~--------------------|
E--2-2-2--2-2-2~-------x--x-x---x-x--0---7~---7~--------------------|


Fills:
Psychocize me..............         Terrify me
e-----14---14------14---14----------14------------------------------|
B--17---17---17-17---17---17----------17----------------------------|
G-------------------------------------------------------------------|
D-----------------------------------------------4-3-2---------------|
A-----------------------------------------------------4-3-2---------|
E-----------------------------------------------------------4-------|


Bass "solo"
The guitars rotovibe is at the end
G-11-11-11-----11-11--11----11-----11-9---9-9-9---9-9-9---9---9-7----------------------------|
D-----------11-----------11-----11--------------9-------9---9--------------------------------|
A-------------------------------------------------------------------5-5-5--0-5-0--5-0-5--0-5-|
E--------------------------------------------------------------------------------------------|


Hold chords out
e-------------------------------------------------------------------|
B------------------------rotovibe-----------------------------------|
G-11-------9-------7--------7~~~~~~---------------------------------|
D-11-------9-------7--------7~~~~~~---------------------------------|
A-9--------7-------5--------5~~~~~~---------------------------------|
E-------------------------------------------------------------------|


Bass solo: repeat 8 times
G-----------------------------|--------------------------------------|
D-----------------------------|--------------------------------------|
A--9-8-7--9-8-7--9-8-7--9-8-7-|--------------------------------------|
E-----------------------------|--------------------------------------|
[ Tab from: http://www.guitartabs.cc/tabs/b/black_label_society/world_of_trouble_tab.html ]
Guitar solo:                                 repeat
e--------------------------------------------|-----------------------|
B--x\\---------------------------------------|-----------------------|
G-----\--------------------------------------|-----------------------|
D------\-------------------------------------|-----------------------|
A-------\------------------------------------|-----------------------|
E--------\----2-1-0---2-1-0---2-1-0---2-1-0--|-----------------------|
Wah+pick+scratch


repeat:
    ~~~~~~~~~~~~~~~~~~~~~~~~~~~~~~~~~~~~         ~~~~~~~~~~~~
e-/12--------------------------------------------12------------------|
B--12------12--------12----------12-------/14~---12---12----12-9-\---|
G-----------------------------------------------------------------\--|
D------------------------------------------------------------------\-|
A-------------------------------------------------------------------\|
E--------------------------------------------------------------------|


e-16~~~---16--14-16-14-11-14-11----11-11-11-----11-14-p11----------------------|
B-------------------------------14----------/14--------------11-h14-p11-----11-|
G---------------------------------------------------------13-------------13----|
D------------------------------------------------------------------------------|
A------------------------------------------------------------------------------|
E------------------------------------------------------------------------------|


e------------------------------------------------------------14-11--|
B-h14-p11-13-p11----11-h14-p11-------14-11-------14-11--------------|
G----------------13------------13-11-------13-11-------13-11--------|
D-------------------------------------------------------------------|
A-------------------------------------------------------------------|
E-------------------------------------------------------------------|


e--------------------------------------------------14-11------------|
B-14-11-------14-11--------14-11-------14-11-------------14-11------|
G-------13-11-------13-11--------13-11-------13-11--------------13--|
D-------------------------------------------------------------------|
A-------------------------------------------------------------------|
E-------------------------------------------------------------------|


e----14-11-------------14-11--------------14---14--14--14---14~~~~--|
B----------14-11-------------14-11----------------------------------|
G-11-------------13-11-------------13-11----------------------------|
D-------------------------------------------------------------------|
A-------------------------------------------------------------------|
E-------------------------------------------------------------------|


e-------------------------------------------------------------------|
B------11-----------------------------------------------------------|
G--/13----/13-13-11-13-13-13--13-21-21-13---13----------------------|
D-------------------------------------------------------------------|
A-------------------------------------------------------------------|
E-------------------------------------------------------------------|

guitar line under solo
e-----------------------------------------------------------------------|
B-----------------------------------------------------------------------|
G--8---6---8------------11-------13-------------------------------------|
D--8---6---8------------11-------13-------------------------------------|
A--6---6---6--------6-9-9---9-11-11-------------------------------------|
E-----------------------------------------------------------------------|
 These are the chords/patterns for the guitar line under the solo,
 It is up to YOU to figure out where they go.
Comments