Black Label Society - The Blessed Hellride Chords & Tabs

 

The Blessed Hellride Chords & Tabs

Black Label Society Chords & Tabs

Version: 1 Type: Tab 0 ratings
1 star 2 stars 3 stars 4 stars 5 stars
comments

The Blessed Hellride Tab

   
This is the first album i have tried to tab out and i think it's 
probably the hardest i'll try aswell hope it's usefull.

Track List
1. Stoned And Drunk
2. Doomesday Jesus
3. Stillborn
4. Suffering Overdue
5. The Blessed Hellride
6. Funeral Bell
7. Final Solution
8. Destruction Overdrive
9. Blackened Waters
10. We Live No More
11. Dead Meadow

pm = Palm mute
/ = slide
~ = vibrato (normally 2 frets wide)
* = Pinched Harmonic
h = hammer-on 
b = bend note
r = release bent note
t = trill(constant hammer-on)

_______________________________________________________________________
_______________________________________________________________________

1.Stoned and Drunk
tuning(low to high) Eb Ab Db Gb Bb Eb

Intro
e----------------------------------------------------------------------
b----------------------------------------------------------------------
g-0h2-2-----2-----2-----2-----2/5-----5-----5/4-----4-----4-----4------
d-0h2---2-----2-----2-----2-----2/5-----5-----5/4-----4-----4----------
a---------0-----0-----0-----0-------0-----0-------0-----0-----0--------
e----------------------------------------------------------------------

if you listen over the riff played above a second guitar plays this:
e----------------------------------------------------------------------
b----------------------------------------------------------------------
g----------------------------------------------------------------------
d-5-5-7----------------------------------------------------------------
a-5-5-7----------------------------------------------------------------
e-3-3-5----------------------------------------------------------------


Verse
e----------------------------------------------------------------------
b----------------------------------------------------------------------
g----------------------------------------------------------------------
d-4-4-4-4-4-4-4-4-------------4-4-4-4-5/4-4-4-------------4-4-4-4-4-4-4
a-0-2-0-2-0-2-0-2-------------0-2-0-2-3/2-0-2-------------0-2-0-2-0-2-0
e-----------------5-3-2-5-3-2-----------------5-3-2-5-3-2--------------
  +   +   +   +   + + + + + + +   +       +   + + + + + + +   +   +   + 

    

e----------------------------------------------------------------------
b----------------------------------------------------------------------
g----------------------------------------------------------------------
d-------------/5/4-0-/5/4-0-/5/4---------------------------------------
a-------------/3/2-0-/3/2-0-/3/2---------------------------------------
e-5-3-2-5-3-2----------------------------------------------------------


Pre-Chorus
e----------------------------------------------------------------------
b----------------------------------------------------------------------
g-7-7-5-2-2-2-2-2-2-2-2-2-7-7-5-2-2-2-2-2-2-2-2-2-7-7-5-2-2-2-2-2-2-2-2
d-7-7-5-2-2-2-2-2-2-2-2-2-7-7-5-2-2-2-2-2-2-2-2-2-7-7-5-2-2-2-2-2-2-2-2
a-5-5-3-0-0-0-0-0-0-0-0-0-5-5-3-0-0-0-0-0-0-0-0-0-5-5-3-0-0-0-0-0-0-0-0
e----------------------------------------------------------------------
          pm-------------         pm-------------         

Chorus
e----------------------------------------------------------------------
b----------------------------------------------------------------------
g----------------------------------------------------------------------
d----------------------------------------------------------------------
a-2----2----2----2----2----2--------2-3-5~-2----2----2----2----2----2--
e-0-3b-0-3b-0-3b-0-3b-0-3b-0--0-3-5--------0-3b-0-3b-0-3b-0-3b-0-3b-0--
    +    +    +    +    +     + + + + + *    +    +    +    +    +


Solo
e----------------------------------------------------------------------
b-----10-----10-----10-----10-----10-----10-12-0-10-0-9-0-7-0-9-0-10-0-
g-9b11---9b11---9b11---9b11---9b11---9b11------------------------------
d----------------------------------------------------------------------
a----------------------------------------------------------------------
e----------------------------------------------------------------------
                                             

+++++++++++++++++++++++++++

e----------------------------------------------------------------------
b----------------------------------------------------------------------
g--9-0-7-0-------------------------------------------------------------
d----------9-0-7-0-7b9r7p5-7~------------------------7-8-9-------7-8-9-
a----------------------------------7-8-9-------7-8-9-------7-8-9-------
e----------------------------7-8-9-------7-8-9-------------------------
   +++++++++++++++           ++++++++++++++++++++++++++++++++++++++++++

e-----------------------------------17-----------17-----------17-------
b-------------10b12~-10b12~-10b12~~---20p17-20b22--20p17-20b22--20p17-2
g-------7-8-9----------------------------------------------------------
d-7-8-9----------------------------------------------------------------
a----------------------------------------------------------------------
e----------------------------------------------------------------------
  +++++++++++ 

e-17-----------17-----------17------------17-20-22-20-17---------------
b---20p17-20b22--20p17-20b22--20p17-20b22----------------20-17-20-20~~-
g----------------------------------------------------------------------
d----------------------------------------------------------------------
a----------------------------------------------------------------------
e----------------------------------------------------------------------

e-17-----------------------------------------------17-20-22-20-17--17h2
b---20-17-----17-20-17------------------20~~~~~~~~~--------------20----
g--------19b21---------19b21r19p17-19~---------------------------------
d----------------------------------------------------------------------
a----------------------------------------------------------------------
e----------------------------------------------------------------------

e------------------------------------------------------------------7-9-
b-17-20-17--17-20-17--17-20-17--17-20-17-----20b21~--10b12r10-10b12----
g---------19--------19--------19--------19p17--------------------------
d----------------------------------------------------------------------
a----------------------------------------------------------------------
e----------------------------------------------------------------------

e-7-10-9-7------7h10p7-------------------------------------------------
b----------10b12------10p7-9p7----7h10p7----7h10p7---------------7h10p7
g-----------------------------9b11------9b11-----------7-8-9-9b11------
d-------------------------------------------------7-8-9----------------
a----------------------------------------------------------------------
e----------------------------------------------------------------------

e----------------------------------------------------------------------
b---------7-------7-------7-------9b11r9p7----7---7~-------------------
g-7-9~~~~-7-------7-------7-------9b11r9p7----7---7~-------------------
d-----------9-7-9---9-7-9---9-7-9-----------9---9----------------------
a-------------------------------------------------------------7-8-9-10-
e----------------------------------------------------7-8-9-10----------

e--------------------------------------------------17-----------17-----
b-----------------5----8------10-----13-----15-----17---------17-------
g----7-9b11r9-7~~-7b9~-10b12~-12b14~-15b17~-17b19~-19b21-19b21----19b21
d-10-------------------------------------------------------------------
a----------------------------------------------------------------------
e----------------------------------------------------------------------

repeat the last bend as many times as needed.  again this is only a 

guide line
but i've tried to make the best job i could of it.

Fill 1(to get the squealing zakk gets, what ever shape you use to get 

pinched harmonics use that shape and use tremelo picking on the 

appropriate string this produces a harmonic sound on each string so 

effectively your playing all this fill as a harmonic)
e-------------------------------------------------------
b-4p2p0-4p2p0-4p2p0-------------------------------------
g-------------------4p2p0-4p2p0-------------------------
d-------------------------------4p2p0-4p2p0-------------
a-------------------------------------------4p2p0-4p2p0-
e-------------------------------------------------------


Fill 2(you only here this fill on the second chorus)
e---------------
b---------------
g---------------
d---------------
a-------2-3-5~--
e-2-3-5---------
  + + + + + *
_______________________________________________________________________
_______________________________________________________________________

2. Doomesday Jesus

Tuning-(low to high) C g C F a d

pm = Palm mute
/ = slide
~ = vibrato (normally 2 frets wide)
* = Pinched Harmonic
h = hammer-on 
b = bend note
r = release bent note
t = trill(constant hammer-on)

Intro/Verse
E--------------------------------------------|
B--------------------------------------------|
G--------------------------------------------|
D--------------------------------------7-----|
A--------------------------------------5-----|
E-1/22\1-0-0-0-0-0-0-0-0-0-0-0-0-0-0-0-0-----|
        pm|---------------------------|

Chorus
E--------------------------------------------|
B--------------------------------------------|
G--------------------------------------------|
D-10-9-7-9-10-7------------------------------|
A-8--7-5-7-8--5-6-5-3-3-2-0-2-3-0------------|
E---------------6-5-3-3-2-0-2-3-0------------|
                     pm---   pm-

at the end of the riff above there are two things that are played

1                              2
E--------------------|        e|--------------------------|
B--------------------|        b|--------------------------|
G--------------------|        g|--------------------------|
D---5---5------------|        d|--------------------------|
A-0-3-0-3-5*~--------|        a|-----------------------0--|
E-0---0--------------|        e|-3*~-0-3*~-0-3*~-0-3*~-0--|

bit after second chorus   x2
E---------------------------------------------|
B---------------------------------------------|
G---------------------------------------------|
D---------------------------------------------|
A-6-5-0-5-0-0-----0------------------------0--|
E-6-5-0-5-0-0-3*~-0--3*~-0-3*~-0-3*~-0-3*~-0--|

bit before solo
E---------------------------------------------|
B---------------------------------------------|
G---------------------------------------------|
D---------------------------------------------|
A---------------------------------------------|
E-0-0-0-0-0-0-0-0-0-0-0-0-0-0-0-0-0-0-0-0-0-0-|
the lead guitar just does a load of slides up and down the neck over 

the riff above before the solo.

solo
E---------------------------------------------------------------------
B---------------------------------------------------------------------
G------------------------------------------------------------5-7-8--8b
D-8-7-5-------------5-5-------8-7-5--------------------5-7-8----------
A-------7-5h7-5-7-7-----7~-/--------7-5h7--------5-7-8----------------
E------------------------------------------5-7-8----------------------
                                            pm|-------------------|     

   

E--------------17-14-16-14-17-14-16-14-------------------------------
B-17b20r17~~---------------------------17-15-14-17-15-14-------------
G--------------------------------------------------------16b18r16-14-
D--------------------------------------------------------------------
A--------------------------------------------------------------------
E--------------------------------------------------------------------


E-17-14-17-14-------17-14-17-14-------17-14-17-14-------17-14-17-14-
B-------------17-14-------------17-14-------------17-14-------------
G-------------------------------------------------------------------
D-------------------------------------------------------------------
A-------------------------------------------------------------------
E-------------------------------------------------------------------

E--------------------------------|
B-17-14--15t18----17t20----------|
G------------------------19~-----|
D--------------------------------|
A--------------------------------|
E--------------------------------|
______________________________________________________________________
______________________________________________________________________

3. Stillborn
tuning(low to high) Eb Ab Db Gb Bb Eb

Intro
E-------------------------|
B-------------------------|TO GET THE SOUND ZAKK MAKES
G-------------------------|SIMPLY PICK THE PINCH HARMONICS
D-------------------------|WHILST MOVING YOUR HAND FROM THE NECK TO THE
A-------------------------|BRIDGE AND BACK.
E-2*-2*-2*-2*-2*-2*-2*-2*-|

Chorus
E---------------------------------------------------------------------
B---------------------------------------------------------------------
G---------------------------------------------------------------------
D---------------------------------------------------------------------
A-2-2-2-2-2-2-2-2-2-2-2-2-2-2-2---------------------------------------
E-0-0-0-0-0-0-0-0-0-0-0-0-0-0-0--2*-2*-2*-2*-2*-2*-2*-2*--2*-2*-2*-2*- 
    PM-   PM-   PM-   PM-   PM  

E---------------------------------------------------------------------
B---------------------------------------------------------------------
G---------------------------------------------------------------------
D---------------------------------------------------------------------
A--------------2-2-2-2-2-2-2-2-2-2-2-2-2-2-2--------------------------
E-2*-2*-2*-2*--0-0-0-0-0-0-0-0-0-0-0-0-0-0-0-2*-2*-2*-2*-2*-2*-2*-2*--
                 PM-   PM-   PM-   PM-   PM                           

Bridge
E---------------------------------------------------------------------
B----3--5----------------------3--5-----------------------------------
G----2--2--4/5/4---4/5/4-2-----2--2-----------------------------------
D-4--0-----x/x/x---x/x/x-2--4--0--------------------------------------
A-4--------2/3/2---2/3/2-0--4-------0-0-0-0-0-------------------------
E-2--------------0----------2-------0-0-0-0-0-------------------------
                 pm                 pm-------

Solo
E--------------------------------------------------------------
B--------------------------------------------------------------
G--------------------------------------------------------------
D---------------7-9^11R9^^^-7~---------------------------------
A-5T7-------7-9------------------------------12-14-14-14-16-16-
E-----22///---------------------17/-12-14-14-------------------
                                    PM-------------------------

E-----------------------------------------------------------
B------------------------------------------------17P14-17~--
G----------16^P14-16--------------------14-16-16------------
D-14-16-16---------------------14-16-16---------------------
A---------------------14-16-16------------------------------
E-----------------------------------------------------------
  PM------            PM-------------------------

E-----14-----------14-----------14-----------14-----------14-----------
B-17^----17P14-17^----17P14-17^----17P14-17^----17P14-17^----17P14-17^-
G----------------------------------------------------------------------
D----------------------------------------------------------------------
A----------------------------------------------------------------------
E----------------------------------------------------------------------

E-17-14-17----------17-14-16-17-16-14-17-16-14----------
B----------17-14-17----------------------------14-17^~~-
G-------------------------------------------------------
D-------------------------------------------------------
A-------------------------------------------------------
E-------------------------------------------------------

E---------------------------------------------------------
B-----2H5P2-----2H5P2-----2H5P2-----2H5P2-----------------
G-4^~-------4^~-------4^~-------4^~-------4^^4*^^4*R4-2*~-
D---------------------------------------------------------
A---------------------------------------------------------
E---------------------------------------------------------

E-------4H5H7-------5H7H9--------7H9H10---------9H10H12----------
B-3H5H7-------5H7H9-------7H9H10--------9H10H12---------10H12H14-
G----------------------------------------------------------------
D----------------------------------------------------------------
A----------------------------------------------------------------
E----------------------------------------------------------------

E-10H12H14----------12H14H16----------14H16H17-14----|
B----------12H14H15----------14H15H17----------17^~~-|
G----------------------------------------------------|
D----------------------------------------------------|
A----------------------------------------------------|
E----------------------------------------------------|
_______________________________________________________________________
_______________________________________________________________________

4. Suffering Overdue
tuning(low to high) Bb Ab Db Gb Bb Eb

Intro
E-------------------------------------------------------------------
B-------------------------------------------------------------------
G-------------------------------------------------------------------
D-------------------------------------------------------------------
A-------------------------------------------------------------------
E-0-0-/12-10*~~~5-3--/6-5-3-5-3*~~~-0-0-/12-10*~~5-3-/6--5-3-5*~~~--
  PM-           PM-     PM---       PM-          PM-     PM-        
E---------------------------------------------------------------|
B---------------------------------------------------------------|
G-------------------------------------------------------10----9-|
D-------------------------------------------------------10----9-|
A-------------------------------------------------------8----7--|
E-0-0-/12-10*~~~5-3--/6--5-3-5-3*~~~~-0-0-/12--10*~~5-3---------|
  PM-           PM-      PM---        PM-           PM-

Verse
E----------------------------------------------------------------|
B----------------------------------------------------------------|
G----------------------------------------------------------------|
D-4-4-4-4--4-4-4--4-4-7---9---4-4-4-4--4-4-4--4-4-5--------------|
A-0H2-2-2--2-2-2--2-2-5---7---0H2-2-2--2-2-2--2-2-3--------------|
E-----------------------0----------------------------------------|
      PM   PM-    PM-             PM   PM-    PM-                 

Chorus
E-------------------------------------------------------------------
B-------------------------------------------------------------------
G-------------------------------------------------------------------
D-------------------------------------------------------------------
A-------------------------------------------------------------------
E-0-0-/12-10*~~~5-3--/6-5-3-5-3*~~~-0-0-/12-10*~~5-3-/6--5-3-5*~~~--
  PM-           PM-     PM---       PM-          PM-     PM-        
E---------------------------------------------------------------|
B---------------------------------------------------------------|
G-------------------------------------------------------10----9-|
D-------------------------------------------------------10----9-|
A-------------------------------------------------------8----7--|
E-0-0-/12-10*~~~5-3--/6--5-3-5-3*~~~~-0-0-/12--10*~~5-3---------|
  PM-           PM-      PM---        PM-           PM-

Quiet Bit
E----------------------------------------------------------------
B----------------------------------------------------------------
G--------0--------------0---------------2---------------2---2----X4
D----4-----4--------4-----4---------4-----4-------2---2---2---2--
A-2----2-----2---2----2-----2-4--5----5-----4---4---4------------
E----------------------------------------------------------------

E--------------------------------------------------------------|
B--------------------------------------------------------------|
G--------2--------------2---2-----------2--------------2---2---|
D----4-----4--------2-----2---2-----4-----4--------2-----2---2-|
A-5----5-----4---4----4----------5----5-----4---4----4---------|
E--------------------------------------------------------------|

Pre-Solo
      PM---|     PM--|      PM--------------|
E-----------------------------------------------|
B-----------------------------------------------|
G-----------------------------------------------|
D-----------------------------------------------|
A-----------------------------------------------|
E-0--0-0-0-0-0--0-0-0-0--0--0-0-0-0-6-5-3-6-5-3-|

E-----------------------------------------|
B-----------------------------------------|
G-----------------------------------------|
D-----------------------------------------|
A-----------------------------------------|
E-0-0-0-0-0-10-12-13-0-10-0-7-8-0-5-7-0-3-|
  PM-------------------------------------

Solo
E-17^~~-/14-17-16-14-------------------------------------------
B--------------------17-16-14-------17-16-14-------------------
G-----------------------------16-14----------16-14-12----------
D-----------------------------------------------------16-14-12-
A--------------------------------------------------------------
E--------------------------------------------------------------

E---------------------------------------------------
B---------------------------------------------------
G-16-14-12------------------------------------------
D----------16-14-12----------16-14-12---------------
A-------------------15-14-12----------15-14-12-14~~-
E---------------------------------------------------

E-------------------------------------------------------------
B-------------------------------------------------------------
G----12-14-12----12-14-12----12-14-12----12-14-12----12-14-12-
D-14----------14----------14----------14----------14----------
A-------------------------------------------------------------
E-------------------------------------------------------------

E------------------------------------------------------------------
B------------------------------------------------------------------
G----12-14-12----12-14-12----12-14-12----12-14-12----12-14-12-14~~-
D-14----------14----------14----------14----------14---------------
A------------------------------------------------------------------
E------------------------------------------------------------------

E------------------------------------------------
B------------------------------------------------
G-12^^^-7-5~-----------12^^^--5-7-5--------------
D------------7^---------------------5-7-5--------
A---------------7^^^^---------------------7^^^^--
E------------------------------------------------

E-10-7------10-7------10-7------10-7------10-7------10-7------10-7-----
B------10-7------10-7------10-7------10-7------10-7------10-7------10-7
G----------------------------------------------------------------------
D----------------------------------------------------------------------
A----------------------------------------------------------------------
E----------------------------------------------------------------------

E-10-7------10-7------10-7------12-7------10-7------10-7------10-7-----
B------10-7------10-7------10-7------10-7------10-7------10-7------10-7
G----------------------------------------------------------------------
D----------------------------------------------------------------------
A----------------------------------------------------------------------
E----------------------------------------------------------------------

E---------------------------------------------------------------15-17-
B-17~~-------------------------------------------------15-17-18-------
G---------------------------14-15-17----------14-15-17----------------
D------------------14-15-17----------14-15-17-------------------------
A---------14-15-17----------------------------------------------------
E---------------------------------------------------------------------

E-18----------15-17-18-17-15----------18-17-15------------------------
B----15-17-18----------------18-17-15----------18-17-15---------------
G-------------------------------------------------------18-17-15-17~~-
D---------------------------------------------------------------------
A---------------------------------------------------------------------
E---------------------------------------------------------------------

E----------------|
B----------------|
G-12T15--17^^^~--|
D----------------|
A----------------|
E----------------|
_______________________________________________________________________
_______________________________________________________________________

5. The Blessed Hellride
Tuning(low to high) E a d g B E

Intro
E-0/0---0--0---0---0----0-------0----|
B-5/7---7--7---7---7----6-------6----|
G-0/0---0--0---0---0----5-------5----|
D-5/7---7--7---7---7----7-------0----|
A-3/5---5--5---5---5----8-------7----|
E------------------------------------|

Chorus
E-5--5--5---5--5-5--5----------------------0--0---0--0-0-0---0-
B-5--5--5---5--5-5--5----------------------7--7---7--7-8-7---7-
G-x--x--x---x--x-x--x---x--x-x--x---x--x-x-0--0---0--0-0-0---0-
D-7--7--7---7--7-7--7---5--5-5--5---5--5-5-7--7---7--7-7-7---7-
A-7--7--7---7--7-7--7---5--5-5--5---5--5-5-5--5---5--5-5-5---5-
E-5--5--5---5--5-5--5---3--3-3--3---3--3-3---------------------


Solo
E-13-----------------------------------------------
B-13-----------------------------------------------
G-12^-10----------------------------------10-------
D----------12-----------10--------10-12---------10
A---------------10-12--------12--------------------
E--------------------------------------------------

E----------------------------13--------------------
B----------------------------13--------------13----
G-10-12-12^\-10-12-10----12^-10--------------------
D-------------------------12-------------12--------
A--------------------------------------------------
E--------------------------------------------------

E--------------------------------------------------
B-12-13-12-10-------10-----------------------------
G---------------13-------13-12-10------------12^-10
D------------------------------------10-12---------
A--------------------------------------------------
E--------------------------------------------------

E-13------------------10---------------------------
B-13------------13^---------13-10-13-10---------
G-12^-10----------------------------------12-10----
D----------12--------------------------------------
A--------------------------------------------------
E--------------------------------------------------
[ Tab from: http://www.guitartabs.cc/tabs/b/black_label_society/the_blessed_hellride_tab.html ]
E------------------------13------------------------
B-------------13-13-----13------------------------
G-10-12-12^------------12^-10--------------------
D---------------------------------12---------------
A--------------------------------------------------
E--------------------------------------10-10-12-12

E--------------------------------------------------
B--------------------------------------------------
G---------------------------10-12-12^\-10----------
D-------------------10-12------------------12-10-12
A-8-8-10-10-10-10----------------------------------
E--------------------------------------------------

E--------------------------------------------------
B--------------------------------------------------
G-10-12--------------------------------------------
D--------------------------------------------------
A--------------------------------------------------
E--------------------------------------------------
_______________________________________________________________________
_______________________________________________________________________

6.Funeral Bell
tuning(low to high) Bb Ab Db Gb Bb Eb

Intro Gtr 1
E---------------------------------------------------------------
B--------------------------------------------------------------- 
G---------------------------------------------------------------  
D----4-4-4-4-4-----4-4-4-4-4-----4-4-4-4-4-----4-4-4-4-4--------  
A----2-2-2-2-2-----2-2-2-2-2-----2-2-2-2-2-----2-2-2-2-2--------  
E-0--0-0-0-0-0--0--0-0-0-0-0--0--0-0-0-0-0--0--0-0-0-0-0--------
  PM----------------------------------------------------

E-------------------------------------------------------|
B-------------------------------------------------------| 
G--------------------------------------------2----------|  
D----4-4-4-4-4-----4-4-4-4-4-----4-4-4-4-4---2----------|  
A----2-2-2-2-2-----2-2-2-2-2-----2-2-2-2-2---0----------|  
E-0--0-0-0-0-0--0--0-0-0-0-0--0--0-0-0-0-0--------------|
  PM--------------------------------------|

Gtr 2
E---------------------------------------------------|
B---------------------------------------------------|
G-9~--7~-------------9~--7~-------------2-----------|
D-9~--7~--7~--9~--7--9~--7~--7~--9~-----2-----------|
A---------7~--9~--7----------7~--9~-----0-----------|
E--------------------------------------------3*~~---|               

Verse
E-------------------------------------------------------|
B-------------------------------------------------------| 
G--------------------------------------------2----------|  
D----4-4-4-4-4-----4-4-4-4-4-----4-4-4-4-4---2----------|  
A----2-2-2-2-2-----2-2-2-2-2-----2-2-2-2-2---0----------|  
E-0--0-0-0-0-0--0--0-0-0-0-0--0--0-0-0-0-0--------------|
  PM--------------------------------------|
ON SECOND TIME PLAY THIS

E-----------------------------------------------------------
B-----------------------------------------------------------
G-2---2---2-------------------------------------------------
D-2---2---2-----------------------4-4-4-4-4-----4-4-4-4-4---
A-0---0---0-----------------------2-2-2-2-2-----2-2-2-2-2---
E---3---3---3*~~---3*~~--5*~~--0--0-0-0-0-0--0--0-0-0-0-0---
    PM  PM                     PM------------------------|

Chorus
E------------------ ------------------------------------------------
B------------------ -----------3---3--------------------3---3-------
G-5P3P05P3P05P3P0-- -4---------2---2----2----4----------2---2----2--
D------------------ -4----2----0---0----2----4-----2----0---0----2--
A------------------ -2----2----0---0----0----2-----2----0---0----0--
E------------------ ------------------------------------------------    
  with the fill 
above scrape the
pick down the string

Solo
E----------------12-7-12-7----10-7-10-7----12-7-12-7----10-7-10-7------
B-------------------------10-7---------10-7---------10-7---------10-7--
G-5P3P05P3P0-----------------------------------------------------------
D----------------------------------------------------------------------
A----------------------------------------------------------------------
E----------------------------------------------------------------------

E--------7----------------7------------------------------------
B--10^~-----10-7--------10---10-7-----------------10-7---------
G----------------10--------------9-10-9-10-7---9^------9-7-----
D--------------------------------------------------------------
A--------------------------------------------------------------
E--------------------------------------------------------------

E----------------------------------------------------------------------
B----7----7----7----7----7----7----7----7-----7H10P7---7H10P7---7H10P7-
G-9^---9^---9^---9^---9^---9^---9^---9^----9^--------9^--------9^------
D----------------------------------------------------------------------
A----------------------------------------------------------------------
E----------------------------------------------------------------------

E---------------------------------------------10-7-10-7----10-7-10-7---
B----7H10P7----7H10P7----7H10P7----7H10P7--------------10-7------------
G-9^--------9^--------9^--------9^--------9^---------------------------
D----------------------------------------------------------------------
A----------------------------------------------------------------------
E----------------------------------------------------------------------

E-----10-7-10-7----10-7-10-7----10-7-10-7----10-7-10-7----------
B-10-7---------10-7---------10-7---------10-7-----------15^~~---
G---------------------------------------------------------------
D---------------------------------------------------------------
A---------------------------------------------------------------
E---------------------------------------------------------------

E-----17------17------17------17-----17-------------------------
B-17^-----17^-----17^-----17^----17^----17----15----17----------
G------------------------------------------16----16-------------
D---------------------------------------------------------------
A---------------------------------------------------------------
E---------------------------------------------------------------

E----17----17----17--17^~~~~~-----17----17-17--17--17--17-------|
B-17^---17^---17^--------------17^---17^---17^-17^-17^-17^------|
G---------------------------------------------------------------|
D---------------------------------------------------------------|
A---------------------------------------------------------------|
E---------------------------------------------------------------|
_______________________________________________________________________
_______________________________________________________________________

7.Final Solution
tuning(low to high) B a d g B E

Intro
E---------------------------------------------------------------------|
B---------------------------------------------------------------------|
G---------------------------------------------------------------------|
D-0---------0--------------------------0---------0--------------------|
A-0--0-0-0--0--0-0-0-------------------0--0-0-0--0--0-0-0-------------|
E-0--0-0-0--0--0-0-0--0-6-5-3-5-6-5-3--0--0-0-0--0--0-0-0-0-5*~-0-5*~-|
     PM---     PM--------------------     PM---     PM-----

Verse
E---------------------------------------------------------------------|
B---------------------------------------------------------------------|
G---------------------------------------------------------------------|
D-0---------0--------------------------0---------0--------------------|
A-0--0-0-0--0--0-0-0-------------------0--0-0-0--0--0-0-0-------------|
E-0--0-0-0--0--0-0-0--0-6-5-3-5-6-5-3--0--0-0-0--0--0-0-0-0-5*~-0-5*~-|
     PM---     PM--------------------     PM---     PM-----

Chorus
E----------------------------------------------------------------------
B----------------------------------------------------------------------
G----------------------------------------------------------------------
D-10--5--4---------------10--5--4---------------10--5--4---------------
A-8---3--2-0-0-0-0-0-0---8---3--2-0-0-0-0-0-0---8---3--2-0-0-0-0-0-0---
E----------0-0-0-0-0-0------------0-0-0-0-0-0------------0-0-0-0-0-0---

E--------------------------------------
B--------------------------------------
G--------5P3P05P3P05P3P05P3P0----------
D-10--5--------------------------------
A-8---3--------------------------------
E--------------------------------------

Bridge
E-------------------------------------------------------
B-------------------------------------------------------
G-4--4--6--7--2--------------4--4--6--7--2--------------
D-x--x--x--x--2--------------x--x--x--x--2--------------
A-2--2--4--5--0--------------2--2--4--5--0--------------
E-0--------------8~~--8-10~~-0-------------8~~--8-10~~--

E--------------------------------------------------------
B--------------------------------------------------------
G-4--11--9--7--6---6/7-4----4--11--9--7--6--6/7----------
D-x--x---x--x--x---x/x-x----x--x---x--x--x--x/x----------
A-2--9---7--5--4---4/5-2----2--9---7--5--4--4/5----------
E--------------------------------------------------------

Solo
E-9^11R9~~~~~~9^11R9-7---------------------------------
B----------------------10-7----------------------------
G---------------------------6~~~---4^6R4~~-7^9R7~~-----
D------------------------------------------------------
A------------------------------------------------------
E------------------------------------------------------

E-----7-----------------------------------9^11R9~~~~~~9^11R9-7---------
B-10^---10-7---7-10----7----7----------------------------------10-7----
G------------9^-----9^---9^---9^R9-7~~~----------------------------6~~-
D----------------------------------------------------------------------
A----------------------------------------------------------------------
E----------------------------------------------------------------------

E----------------------------------------------------------------------
B----------------------------------------------------------------------
G--------------------------------------------------------12-15-14-12---
D-9~~--11~~--12~~--14~~-------12-15-14-12--12-15-14-12-14-----------14-
A---------------------------14-----------14----------------------------
E----------------------------------------------------------------------

E-----------------------12-14-15--------14-15-17--------14-15-17------
B---------------12-14-15--------14-15-17--------14-15-17--------14-15-
G-12-15-14-12-14------------------------------------------------------
D---------------------------------------------------------------------
A---------------------------------------------------------------------
E---------------------------------------------------------------------

E---14-15-17--------14-15-17--------14-15-17---17^~~---|
B-17--------14-15-17--------14-15-17-------------------|
G------------------------------------------------------|
D------------------------------------------------------|
A------------------------------------------------------|
E------------------------------------------------------|
______________________________________________________________________
______________________________________________________________________

8. Destruction Overdrive
tuning(low to high) Eb Ab Db Gb Bb Eb

Intro:
E--------------------------------------------------------------|
B-19-----19----------------------------------------------------|
G--------------------------------------------------------------|
D--------------------------------------------------------------|
A--------------------------------------------------------------|
E----19/----19/------------------------------------------------|


 Intro/Chorus Riff                                   
E-------------------------------------------------------------|
B-------------------------------------------------------------|
G-------------------------------------------------------------|
D-------------------------------------------------------------|
A-------------------------------------------------------------|
E--0-2-0-3ph---0-2-0-3ph---0-2-0-2-0-2-0-3ph------------------|


  1st ending             2nd ending
E--------------------| |------------------------------|
B--------------------| |------------------------------|
G--------------------| |------------------------------|
D--------------------| |--------------7---------------|
A--/9-7---7----------| |--------------x---------------|
E-------8--8-7-5-0---| |--7b-7b-7b-7b-5---------------|
                        


E---------------------------------------------------------------------|
B--------------------------------------------------------------------0|
G------------------------------------------------------------------0--|
D-----------------------------------------4----2-------------------x--|
A---------------------------------------------------3---2---2h3p2--3--|
E-2-2-2-2--2-2-2-2--2-2-2-2--2-2-2-2----2----2----2---2---2-----------|

Pre-Solo
E-------0----
B-------0----
G------------
D-----7------
A---9--------
E-7----------

Solo
E----------------------------------------------4-5-4H5P4---4-----------
B-2H5P2----2H5P2----2H5P2----2H5P2----2H5P2--------------7---7-5-4---4-
G-------4~-------4~-------4~-------4~-------4~---------------------7---
D----------------------------------------------------------------------
A----------------------------------------------------------------------
E----------------------------------------------------------------------

E---------------------------------------------------------------------
B---------------------------------------------------------------------
G---4-4-4P2---4-4P2---2----------------------------------14-14--------
D-7---------4-------4---4--------------------------14-16-------16-14--
A--------------------------------------12-14-14-14--------------------
E--------------------------12-14-14-14--------------------------------
                           PM---------------------------------------|

E-----------------------------14-----------14-----------14-----------
B----14----13----12-------17B----17P14-17B----17P14-17B----17P14-17B-
G-14----14----14-----14----------------------------------------------
D--------------------------------------------------------------------
A--------------------------------------------------------------------
E--------------------------------------------------------------------

E----14-----------14-----------14-----------14-----------14-------|
B-------17P14-17B----17P14-17B----17P14-17B----17P14-17B----17~~~-|
G-----------------------------------------------------------------|
D-----------------------------------------------------------------|
A-----------------------------------------------------------------|
E-----------------------------------------------------------------|
_______________________________________________________________________
_______________________________________________________________________

9.Blackened Waters
tuning(low to high) d g C F a d

Intro
E--------0------------------------|
B----------0------------2---------|
G------------0-------2----2-------|
D-------2---------2----------2----|
A-----2--------0------------------|
E--0------------------------------|

E------------------------------------------|
B------------------------------3-----------|
G-------0------------------------2---------|
D-----0---0-------------0----------0-------|
A---2---------0-----------0-------------0--|
E-3---------------3---2--------------------|

E-------------------------------|
B-------------------------------|
G-9--11--12--14--16-16/17/16-14-|
D-------------------------------|
A-7--9---10--12--14-14/15/14-12-|
E-------------------------------|

E-------------------------------------------|
B-------------------------------------------|
G-9--11--12--14--16-16/17/16-14--11-12-11-9-|
D-------------------------------------------|
A-7--9---10--12--14-14/15/14-12--9--10-9--7-|
E-------------------------------------------|


Verse
E--------0------------------------|
B----------0------------2---------|
G------------0-------2----2-------|
D-------2---------2----------2----|
A-----2--------0------------------|
E--0------------------------------|

E------------------------------------------|
B------------------------------3-----------|
G-------0------------------------2---------|
D-----0---0-------------0----------0-------|
A---2---------0-----------0-------------0--|
E-3---------------3---2--------------------|

Chorus
E--------------------------------------------------------------------|
B--------------------------------------------------------------------|
G--------------------------------------------------------------------|
D-5--------2---------------------------------------------------------|
A-3--------2---------------------------8--7-5------------------------|
E----3ph---0--/10H12-12-12-10H12-12-12-6--5-3-0----------------------|
                                          PM---|


Last Time On The Chorus
E----------------
B----------------
G-5--4-----------
D-5--4--////////-PICK SCRAPES
A-3--2--////////-
E-------////////-

Pre-Solo
E-----------------------------------------------|
B-----------------------------------------------|
D-2-2-2-2-2-2-2-2-2-2-2-2-2-2-2-2-2-2-2-2-2-2---|
A-2-2-2-2-2-2-2-2-2-2-2-2-2-2-2-2-2-2-2-2-2-2---|
E-0-0-0-0-0-0-0-0-0-0-0-0-0-0-0-0-0-0-0-0-0-0---|
  PM-----------------------------------------|


Solo (W/WAH)
E-----------------15----15--14-15-14H15P14------
B-15^----15~~--17----17-------------------------
G-------------------------------------------14--
D-----------------------------------------------
A-----------------------------------------------
E-----------------------------------------------

E-----------------------------------------------
B-----------------------------------------------
G-12-14-14^16R14P12-----------------------------
D-------------------14-12H14-12-----------------
A-------------------------------14-12----12H14~-
E-------------------------------------15--------

E-------------------------------------------------
B----------------------------17-15-12----17-15-12-
G----15-14-12----15-14-12-15----------15----------
D-14----------14----------------------------------
A-------------------------------------------------
E-------------------------------------------------

E----17-15-12----17-15-12--17^~---15------15------15------15------
B-15----------15---------------------17^~----17^~----17^~----17^~-
G-----------------------------------------------------------------
D-----------------------------------------------------------------
A-----------------------------------------------------------------
E-----------------------------------------------------------------

E--------12-----------12-----------12-------------------------------
B-15^^^-----15P12--------15P12--------15P12----------15^^^P12-------
G-----------------14^----------14^----------14^P12~~----------14-12-
D-------------------------------------------------------------------
A-------------------------------------------------------------------
E-------------------------------------------------------------------

E--------|
B--------|
G--19~~~-|
D--------|
A--------|
E--------|
_______________________________________________________________________
_______________________________________________________________________

10. We Live No More
tuning(low to high)Eb Ab Db Gb Bb Eb

Intro(after drums)    GTR 1
E---------------------------------------------------------------------|
B---------------------------------------------------------------------|
G-4-4-4-4-4-4-4/6-6-6-6-6-6-6-6---------------------------------------|
D-4-4-4-4-4-4-4/6-6-6-6-6-6-6-6--4-4-4-4-4-4-4-4/6-6-6-6-6-6-6-6-6-6/-|
A-2-2-2-2-2-2-2/4-4-4-4-4-4-4-4--4-4-4-4-4-4-4-4/6-6-6-6-6-6-6-6-6-6/-|
E--------------------------------2-2-2-2-2-2-2-2/4-4-4-4-4-4-4-4-4-4/-|

                      GTR 2
E-----------------------------------------|
B-----------------------------------------|
G-----------------------------------------|
D--12-10~~~~--8H10--8~~~~~~---------------|
A-----------------------------------------|
E-----------------------------------------|

Verse
E---------------------------------------------------------------------|
B---------------------------------------------------------------------|
G-4-4-4-4-4-4-4/6-6-6-6-6-6-6-6---------------------------------------|
D-4-4-4-4-4-4-4/6-6-6-6-6-6-6-6--4-4-4-4-4-4-4-4/6-6-6-6-6-6-6-6-6-6/-|
A-2-2-2-2-2-2-2/4-4-4-4-4-4-4-4--4-4-4-4-4-4-4-4/6-6-6-6-6-6-6-6-6-6/-|
E--------------------------------2-2-2-2-2-2-2-2/4-4-4-4-4-4-4-4-4-4/-|

             on second time play this
E----------------------------------------------------------|
B----------------------------------------------------------|
G--------------------------------------8---7---------------|
D-4-4-4-4-4-4-4-4/6-6-6-6-6-6-6-6-6/---8---7---------------|
A-4-4-4-4-4-4-4-4/6-6-6-6-6-6-6-6-6/---6---5---------------|
E-2-2-2-2-2-2-2-2/4-4-4-4-4-4-4-4-4/-----------------------|

Chorus
E---------------------------------------------------------------------|
B---------------------------------------------------------------------|
G------6----4---------6----4---------6----4---------6-6-6-6-6--6-6-6/-|
D-4----6----4----4----6----4----4----6----4----4----6-6-6-6-6--6-6-6/-|
A-4----4----2----4----4----2----4----4----2----4----4-4-4-4-4--4-4-4/-|
E-2--------------2--------------2--------------2----------------------|

Solo
E---------------------------------------------------------------------
B------19----(19)(19)(19)(19)(19)(19)--19----------------------------
G-18^^(20)^^-(20)(20)(20)(20)(20)(20)-----(20)R18-16----16-18-16~~----
D----------------------------------------------------18---------------
A---------------------------------------------------------------------
E---------------------------------------------------------------------

E--------------------------------------------------
B------19-----------------19^--19^--19^--19^~~-----
G-18^^(20)^^---(20)R18-16--------------------------
D--------------------------------------------------
A--------------------------------------------------
E--------------------------------------------------

E------------------------------------------------------------4-----
B-4H7P4-7^---------4h7p4-7^---------4h7p4-7^---------4h7p4-7^--7-4-
G------------------------------------------------------------------
D------------------------------------------------------------------
A------------------------------------------------------------------
E------------------------------------------------------------------

E-----------------------------
B----4-7----------------------
G-6^(8)-(8)R6-4-6^--4-/13~~---
D-----------------------------
A-----------------------------
E-----------------------------


E
B------------------------19b-19-16-----------------------------|
G----------------------------------18b-18-16-------------------|
D--------------------------------------------18-16-16h18-------|
A--------------------------------------------------------------|
E--------------------------------------------------------------|
_______________________________________________________________________
_______________________________________________________________________

11. Dead Meadow
tuning(low to high)E a d g B E

Intro (w/slide)
E----------------------------------------------------------|
B----------------------5/6/5-------------------------------|
G----------------------------------------------------------|
D-9/(10)/(11)/12--12/5---------9/(10)/(11)/12--12/5--------|
A-9/(10)/(11)/12--12/5---------9/(10)/(11)/12--12/5--------|
E----------------------------------------------------------|

Verse(w/slide)
E----------------------------------------------------------|
B----------------------------------------------------------|
G----------------------------------------------------------|
D-9/(10)/(11)/12-------------------------------------------|
A-9/(10)/(11)/12-------------------------------------------|
E----------------------------------------------------------|

Chorus (w/slide)
E-----------------------------------|
B-----------------------------------|
G-/10----10/7-(7)--7/5---5/7--7/9---|
D-/10----10/7-(7)--7/5--------------|
A-----------------------------------|
E-----------------------------------|

Solo
E------10---------------------------------------------
B---------13-10-------10----10------------------------
G-12^14---------12^14---(14)--(14)R12P10-12^-10-12~~--
D-----------------------------------------------------
A-----------------------------------------------------
E-----------------------------------------------------

E------10---------------------------------------------
B---------13-10-------10----10------------------------
G-12^14---------12^14---(14)--(14)R12P10-12^-10-12~~--
D-----------------------------------------------------
A-----------------------------------------------------
E-----------------------------------------------------

E------------------10---------------------------------------------
B---------------------13-10-------10----10------------------------
G-------12----12^14---------12^14---(14)--(14)R12P10-12^-10-12~~--
D-12H14----14-----------------------------------------------------
A-----------------------------------------------------------------
E-----------------------------------------------------------------

E----10-----------13-15-15^-13H15~-13-15P13-13----------------------
B-------13--13H15------------------------------15-13----13----------
G-12^------------------------------------------------14----14-12^14-
D-------------------------------------------------------------------
A-------------------------------------------------------------------
E-------------------------------------------------------------------

E---------------------------------------------------------------10-13-
B--------------------------------(15)R13-(15)R13-(15)R13-13^15--------
G-(14)R12-10-12^-10-12-12^~~--12--------------------------------------
D---------------------------------------------------------------------
A---------------------------------------------------------------------
E---------------------------------------------------------------------

E-10H13P10----13P10-10-10-10-13P10----13P10----13^15-13-10--------
B----------13----------------------10-------10-------------13-10--
G-----------------------------------------------------------------
D-----------------------------------------------------------------
A-----------------------------------------------------------------
E-----------------------------------------------------------------

E---------------------|
B---------------------|
G-(14)R12-10-12^14~~--|
D---------------------|
A---------------------|
E---------------------|

Outro Solo
E------10---------------------------------------------
B---------13-10-------10----10------------------------
G-12^14---------12^14---(14)--(14)R12P10-12^-10-12~~--
D-----------------------------------------------------
A-----------------------------------------------------
E-----------------------------------------------------
repeat this a couple of times at the end.

there you go the whole album. i know there's a hidden track or 

something but i don't have it to tab.
Comments