Black Label Society - Super Terrorizer Chords & Tabs

 

Super Terrorizer Chords & Tabs

Black Label Society Chords & Tabs

Version: 4 Type: Tab 0 ratings
1 star 2 stars 3 stars 4 stars 5 stars
comments

Super Terrorizer Tab

   
Sorry I haven't tabbed the solo but i am working on it and will update it asap

Tuning: Db Ab Db Gb Bb Eb



|--------------------------------------------------------------|
|--------------------------------------------------------------|
|--------------------------------------------------------------|
|-----------------------------------6-----5------2/3---3-2-----|
|-2-4-5^-------------3--------------6-0-0-5-0-0--2/3-0-3-2-0---|
|--------3-4-5-5-6-7---6-5-3^-0-3---6-0-0-5-0-0--2/3-0-3-2-0---|



|----------x3-|-----------------------------------------------|
|-------------|-----------------------------------------------|
|-------------|-----------------------------------------------|
|-6/7--6/7----|-------------------------------------6-----5---|
|-6/7--6/7----|--3-4-5^-------------3---------------6-0-0-5---|
0-6/7--6/7----|---------3-4-5-5-6-7---6-5-3^-0-3^---6-0-0-5---|
[ Tab from: http://www.guitartabs.cc/tabs/b/black_label_society/super_terrorizer_tab_ver_4.html ]
           LIMP BIZKIT SUCKS DICK!!!!!
|--------|------------------------------------------------------|
|--------|------------------------------------------------------|
|--------|------------------------------------------------------|
|-----3--|------------------------------------------------------|
|-0-0-3--|-0-0-0-0-1-0---0-0-0-0-1-0----0-0---------------------|
|-0-0-3--|-0-0-0-0-1-0---0-0-0-0-1-0----0-0----10h12h10---------|


                              RAKE
|--------------------------------x-------------------------------|
|----------------------------------x-----------------------------|
|------------------------------------x---------------------------|
|--------------------------------------x-------------------------|
|-0-0-0-0-1-0---0-0-0-0-1-0---0----------x-----------------------|
|-0-0-0-0-1-0---0-0-0-0-1-0---0------------x---------------------|
   verse
|-----------------------------------------------------------------|
|-----------------------------------------------------------------|
|-----------------------------------------------------------------|
|-----------------------------------------------------------------|
|--------------------0h6-5--0-0-0-0-1-0---0-0-0-0-1-0--0-0--2h4h2-|
|-12^--11^--10^--7^--0h6-5--0-0-0-0-1-0---0-0-0-0-1-0--0-0--------|


end of song
|--------------------------------------------------------------|
|--------------------------------------------------------------|
|--------------------------------------------------------------|
|--------------------------------------------------------------|
|--6-0-0-5--0-0-3--0-0-0--6-0-5-0-3----------------------------|
|--6-0-0-5--0-0-3--0-0-0--6-0-5-0-3----------------------------|
Comments