Black Label Society - Super Terrorizer Chords & Tabs

 

Super Terrorizer Chords & Tabs

Black Label Society Chords & Tabs

Version: 1 Type: Tab 0 ratings
1 star 2 stars 3 stars 4 stars 5 stars
comments

Super Terrorizer Tab

This is in drop B tuning or maybee C# try both. The solo is crazy so your on your own.
I am not sure what the strings are in B or C# so I'll put it in regular.

Intro
E-----345567-6503ph3ph-7xx5xx2/3x3xx66
A--567ph----5ph--------9--7--4/5-5--88
D-------------------------------------
G-------------------------------------
B-------------------------------------
e-------------------------------------X3
4th time do this
E-----345567-6503ph3ph-7xx5xx2
A--567ph----5ph--------9--7--4
D-----------------------------
G-----------------------------
B-----------------------------
e-----------------------------

main riff
[ Tab from: http://www.guitartabs.cc/tabs/b/black_label_society/super_terrorizer_tab.html ]
E-00010-00010-0-0-0------00010-00010-0-0-0------x0-0-----x
A-22232-22232-2-2-2-5h75-22232-22232-2-2-2-----x-2-2----x-
D---------------------------------------------x--------x--
G--------------------------------------------x--------x---
B-------------------------------------------x--------x----
e------------------------------------------x--------x-----X2

Verse

E-------7~65
A-7~6~5~----
D-----------
G-----------
B-----------
e-----------
then go back to the main riff. If you have Stronger then Death or Alchol Fueled 
Brewtality than just listen to it and you can get the rythem down. Till next time 
keep kickin ass, drinkin beer, and dont take F*ckin S*hit from anybody.
Comments