Black Label Society - Suicide Messiah Chords & Tabs

 

Suicide Messiah Chords & Tabs

Black Label Society Chords & Tabs

Version: 2 Type: Tab 0 ratings
1 star 2 stars 3 stars 4 stars 5 stars
comments

Suicide Messiah Tab

   
C-standard tuning...

Intro Riff:
C-------------------------------------|
G-------------------------------------|
E#------------------------------------|
B#---------0h2-2-2-2/7-5-----7-5------|
F----------0h2-----------7-5-----7-5--|
C--3b5r4---0--------------------------|


-------------------|
-------------------|
-------------------|
--0h2-2-2-2--5--7--|
--0h2--------5--7--|
--0----------3--5--|

Main Verse: played at :27, 1:49 and 3:10
-----------------------------------|
-----------------------------------|
-----------------------------------|
--0h2---------------0h2------------|
--0h2-2-2-5---------0h2---5--------|
--0---0-0-3p0-0-0-0-0---0-3p0-0-0--|

Riff at 1:05 and 2:26
-----------------------------------------------------|
-----------------------------------------------------|
-----------------------------------------------------|
--5---7----0h2-2-2-5-------5-7--0h2-2-2-5-------5-7--|
--5---7----0h2-2-2-5-------5-7--0h2-2-2-5-------5-7--|
--3---5----0---0-0-3-0-0-0-3-5--0---0-0-3-0-0-0-3-5--|

Riff at 1:23, 2:44 and 4:02
----------------------------------------|---------|
----------------------------------------|---------|
----------------------------------------|---------|
--2-------------------------------------|---5--7\-|
--2---7-7-7-7-7-7-7-7-7-7-7-7-7-7-7-7---|---5--7\-|
--0---5-5-5-5-5-5-5-5-5-5-5-5-5-5-5-5---|---3--5\-|
                End with this on forth time ====

Now get back into the main riff... follow the same progression...

Solo:

--------------------------------------|
--------------------------------------|
--////12\\\\\\------------------------|
--------------------------------------|
---------------//////19\\\\\\\\\\\\\--|
--------------------------------------|


---------------------------------------------------------|
--22b24v-22b25\\------19b20-19b20-19b20r19p17------------|
----------------------------------------------19b21v\\\--|
---------------------------------------------------------|
---------------------------------------------------------|
---------------------------------------------------------|


---------12--------------12--------------12--------------12--------|
------------15p12-15b17v----15p12-----------15p12-15b17v----15p12--|
--14b16v--------------------------14b16v---------------------------|
-------------------------------------------------------------------|
-------------------------------------------------------------------|
-------------------------------------------------------------------|

[ Tab from: http://www.guitartabs.cc/tabs/b/black_label_society/suicide_messiah_tab_ver_2.html ]
--18-15-12-15-12------------------------------------------|
-----------------15-12-15-12----12------------------------|
-----------------------------14----14-12-14-12----12v\\\--|
-----------------------------------------------14---------|
----------------------------------------------------------|
----------------------------------------------------------|


---------------------------------------------------------|
--22b24v-22b25\\------19b20-19b20-19b20r19p17------------|
----------------------------------------------19b21v\\\--|
---------------------------------------------------------|
---------------------------------------------------------|
---------------------------------------------------------|


--------------------------------------15p12h15-15p12h15-15p12h15-15p12h15--|
--15p12h15-15p12h15-15p12h15-15p12h15--------------------------------------|
---------------------------------------------------------------------------|
---------------------------------------------------------------------------|
---------------------------------------------------------------------------|
---------------------------------------------------------------------------|


--------------------------------------15p12h15-15p12h15-15p12h15-15p12h15--|
--15p12h15-15p12h15-15p12h15-15p12h15--------------------------------------|
---------------------------------------------------------------------------|
---------------------------------------------------------------------------|
---------------------------------------------------------------------------|
---------------------------------------------------------------------------|


--12h17p12-12h17p12-------------------22-22-22-22-22-22b-full-vibrato--|
--------------------12h15p12-12h15p12----------------------------------|
-----------------------------------------------------------------------|
-----------------------------------------------------------------------|
-----------------------------------------------------------------------|
-----------------------------------------------------------------------|

Tap these with the side of your pick... Each note is tapped super fast 16X... Tap with a 
motion to get the effect and keep the E string vibrating.....
----------------------|-------------------------------------22b24r23b24v--|
----------------------|-22b24r23-22b24r23-22b24r23-22b24r23----------22v--|
----------------------|---------------------------------------------------|
--5t17---7t19---10t22-|---------------------------------------------------|
----------------------|---------------------------------------------------|
--3------5------8-----|---------------------------------------------------|
Comments