Black Label Society - Stoned And Drunk Chords & Tabs

 

Stoned And Drunk Chords & Tabs

Black Label Society Chords & Tabs

Version: 2 Type: Tab 0 ratings
1 star 2 stars 3 stars 4 stars 5 stars
comments

Stoned And Drunk Tab

   
This is my favourite song on the album "the blessed hellride".  I'll have a go at
tabbing the solo for you guys but it's just something for you to base it round
cause it sure as hell won't be correct.  this is ZAKK WYLDE on the guitar for the damn thing.

the tuning is (low to high) Eb Ab Db Gb Bb Eb

h = hammer-on
p = pull-off
/ = slide
+ = palm mute
~ = vibrato
* = pinched harmonic

Intro
e---------------------------------------------------------------------------
b---------------------------------------------------------------------------
g-0h2-2-----2-----2-----2-----2/5-----5-----5/4-----4-----4-----4-----------
d-0h2---2-----2-----2-----2-----2/5-----5-----5/4-----4-----4---------------
a---------0-----0-----0-----0-------0-----0-------0-----0-----0-------------
e---------------------------------------------------------------------------

if you listen over the riff played above a second guitar plays this:
e---------------------------------------------------------------------------
b---------------------------------------------------------------------------
g---------------------------------------------------------------------------
d-5-5-7---------------------------------------------------------------------
a-5-5-7---------------------------------------------------------------------
e-3-3-5---------------------------------------------------------------------


Verse
e---------------------------------------------------------------------------
b---------------------------------------------------------------------------
g---------------------------------------------------------------------------
d-4-4-4-4-4-4-4-4-------------4-4-4-4-5/4-4-4-------------4-4-4-4-4-4-4-4---
a-0-2-0-2-0-2-0-2-------------0-2-0-2-3/2-0-2-------------0-2-0-2-0-2-0-2---
e-----------------5-3-2-5-3-2-----------------5-3-2-5-3-2-------------------
  +   +   +   +   + + + + + + +   +       +   + + + + + + +   +   +   +     

e---------------------------------------------------------------------------
b---------------------------------------------------------------------------
g---------------------------------------------------------------------------
d-------------/5/4-0-/5/4-0-/5/4--------------------------------------------
a-------------/3/2-0-/3/2-0-/3/2--------------------------------------------
e-5-3-2-5-3-2---------------------------------------------------------------


Pre-Chorus
e---------------------------------------------------------------------------
b---------------------------------------------------------------------------
g-7-7-5-2-2-2-2-2-2-2-2-2-7-7-5-2-2-2-2-2-2-2-2-2-7-7-5-2-2-2-2-2-2-2-2-2---
d-7-7-5-2-2-2-2-2-2-2-2-2-7-7-5-2-2-2-2-2-2-2-2-2-7-7-5-2-2-2-2-2-2-2-2-2---
a-5-5-3-0-0-0-0-0-0-0-0-0-5-5-3-0-0-0-0-0-0-0-0-0-5-5-3-0-0-0-0-0-0-0-0-0/19
e---------------------------------------------------------------------------
          pm-------------         pm-------------         pm-------------

Chorus
e---------------------------------------------------------------------------
b---------------------------------------------------------------------------
g---------------------------------------------------------------------------
d---------------------------------------------------------------------------
a-2----2----2----2----2----2--------2-3-5~-2----2----2----2----2----2-------
e-0-3b-0-3b-0-3b-0-3b-0-3b-0--0-3-5--------0-3b-0-3b-0-3b-0-3b-0-3b-0-------
    +    +    +    +    +     + + + + + *    +    +    +    +    +


Solo
e-----------------------------------------------------------------------
b-----10-----10-----10-----10-----10-----10-12-0-10-0-9-0-7-0-9-0-10-0--
g-9b11---9b11---9b11---9b11---9b11---9b11-------------------------------
d-----------------------------------------------------------------------
a-----------------------------------------------------------------------
e-----------------------------------------------------------------------
                                             +++++++++++++++++++++++++++
[ Tab from: http://www.guitartabs.cc/tabs/b/black_label_society/stoned_and_drunk_tab_ver_2.html ]
e---------------------------------------------------------------------------
b---------------------------------------------------------------------------
g--9-0-7-0-------------------------------------------------------------7-8-9
d----------9-0-7-0-7b9r7p5-7~------------------------7-8-9-------7-8-9------
a----------------------------------7-8-9-------7-8-9-------7-8-9------------
e----------------------------7-8-9-------7-8-9------------------------------
   +++++++++++++++           +++++++++++++++++++++++++++++++++++++++++++++++

e-----------------------------------17-----------17-----------17------------
b-------------10b12~-10b12~-10b12~~---20p17-20b22--20p17-20b22--20p17-20b22-
g-------7-8-9---------------------------------------------------------------
d-7-8-9---------------------------------------------------------------------
a---------------------------------------------------------------------------
e---------------------------------------------------------------------------
  +++++++++++ 

e-17-----------17-----------17------------17-20-22-20-17--------------------
b---20p17-20b22--20p17-20b22--20p17-20b22----------------20-17-20-20~~-17-20
g---------------------------------------------------------------------------
d---------------------------------------------------------------------------
a---------------------------------------------------------------------------
e---------------------------------------------------------------------------

e-17-----------------------------------------------17-20-22-20-17--17h20p17-
b---20-17-----17-20-17------------------20~~~~~~~~~--------------20---------
g--------19b21---------19b21r19p17-19~--------------------------------------
d---------------------------------------------------------------------------
a---------------------------------------------------------------------------
e---------------------------------------------------------------------------

e------------------------------------------------------------------7-9-10-9-
b-17-20-17--17-20-17--17-20-17--17-20-17-----20b21~--10b12r10-10b12---------
g---------19--------19--------19--------19p17-------------------------------
d---------------------------------------------------------------------------
a---------------------------------------------------------------------------
e---------------------------------------------------------------------------

e-7-10-9-7------7h10p7------------------------------------------------------
b----------10b12------10p7-9p7----7h10p7----7h10p7---------------7h10p7-----
g-----------------------------9b11------9b11-----------7-8-9-9b11------9b11-
d-------------------------------------------------7-8-9---------------------
a---------------------------------------------------------------------------
e---------------------------------------------------------------------------

e---------------------------------------------------------------------------
b---------7-------7-------7-------9b11r9p7----7---7~------------------------
g-7-9~~~~-7-------7-------7-------9b11r9p7----7---7~------------------------
d-----------9-7-9---9-7-9---9-7-9-----------9---9----------------------7-8-9
a-------------------------------------------------------------7-8-9-10------
e----------------------------------------------------7-8-9-10---------------

e--------------------------------------------------17-----------17-------17-
b-----------------5----8------10-----13-----15-----17---------17-------17---
g----7-9b11r9-7~~-7b9~-10b12~-12b14~-15b17~-17b19~-19b21-19b21----19b21-----
d-10------------------------------------------------------------------------
a---------------------------------------------------------------------------
e---------------------------------------------------------------------------

repeat the last bend as many times as needed.  again this is only a guide line
but i've tried to make the best job i could of it.

Fill 1(to get the squealing zakk gets, what ever shape you use to get pinched
harmonics use that shape and use tremelo picking on the appropriate string this
produces a harmonic sound on each string so effectively your playing all this
fill as a harmonic)
e-------------------------------------------------------
b-4p2p0-4p2p0-4p2p0-------------------------------------
g-------------------4p2p0-4p2p0-------------------------
d-------------------------------4p2p0-4p2p0-------------
a-------------------------------------------4p2p0-4p2p0-
e-------------------------------------------------------


Fill 2(you only here this fill on the second chorus)
e---------------
b---------------
g---------------
d---------------
a-------2-3-5~--
e-2-3-5---------
  + + + + + *

Fill 1 is used at these points:the end of the first and second chorus, goin into
the second verse and goin into the second chorus.  the harmonics your here in the
second verse are on the 2nd fret g string, and a majority of the slides in the
song are to and from the 19th fret.  

have fun and adapt the solo to how you see fit any comments and suggestions
and/or abuse for such a crap tab can be sent to my e-mail address at blastedkrap@rock.com.
thanks
Comments