Black Label Society - Stillborn Chords & Tabs

 

Stillborn Chords & Tabs

Black Label Society Chords & Tabs

Version: 5 Type: Tab 0 ratings
1 star 2 stars 3 stars 4 stars 5 stars
comments

Stillborn Tab

   
-------------------------------------------------------------------------------
			     Stillborn - Black Label Socity
-------------------------------------------------------------------------------
Tabbed by: Matt	
Email: nwowolfpack59@mail.com	

please e-mail me if you are going to use this for another
site or to give comments and insults.

Tuning: down 1/2 step
[ Tab from: http://www.guitartabs.cc/tabs/b/black_label_society/stillborn_tab_ver_5.html ]
intro
eb|---------------------------------------------------------------------------|
Bb|---------------------------------------------------------------------------|
Gb|---------------------------------------------------------------------------|
Db|---------------------------------------------------------------------------|
Ab|---------------------------------------------------------------------------|
Eb|---22222---22222-----------------------------------------------------------|
        intro and verse are played with random harmonics. To achieve the wierd
        sound keep switching which pickup your playing over.
   verse
eb|---------------------------------------------------------------------------|
Bb|---------------------------------------------------------------------------|
Gb|---------------------------------------------------------------------------|
Db|---------------------------------------------------------------------------|
Ab|---------------------------------------------------------------------------|
Eb|---22222---22222-----------------------------------------------------------|
   beginning chorus
eb|---------------------------------------------------------------------------|
Bb|---------------------------------------------------------------------------|
Gb|---------------------------------------------------------------------------|
Db|---------------------------------------------------------------------------|
Ab|--2-----2-----2-----2-----2------------------------------------------------|
Eb|--0-0-0-0-0-0-0-0-0-0-0-0-0------------------------------------------------]
      pmpm  pmpm  pmpm  pmpm
 chorus
eb|---------------------------------------------------------------------------|
Bb|------3------5-------------------------------3-----5-----------------------|
Gb|------2------2--4/5\4------4/5\4--2----------2-----2-----------------------]
Db|-4----0---------x----------x------2----4-----0-----------------------------]
Ab|-4----0---------2/3\2------2/3\2--0----4-----0--------0-0-0-0-0-0-0--------|
Eb|-2-00----00------------0------------00-2--00---00-----0-0-0-0-0-0-0--------|
      pm    pm            pm           pm    pm   pm    pm------------]
Solo
eb|-------------------------20\-----------------------------------------------|
Bb|---------------------------------------------------------------------------|
Gb|-----------------------------------------------2h4-4b---------2------------|
Db|--2-(4)------------------------------------2h4------------------------/19\-|
Ab|-----------------------------------------4----------------------------/19\-|
Eb|---------------------------------------------------------------------------|
    tr w/wah                                         1/2 step   tr
   2 measures 4/4                                   3counts
eb|---------------------------------------------------------------------------|
Bb|------------------------------------------------------------------------14-|
Gb|----------------------------------16p14-16b---------------------14-16-16---|
Db|--------------------------14-16-14----------------------14-16-16-----------|
Ab|---------12-14-15-14-16-16-------------------14h15h16-16-------------------|
Eb|-12-14-14------------------------------------------------------------------|
                                          1 step
eb|--------------------14------14-------14-------14-------14-------17b-17p14--|
Bb|-17-17b-17p14-17b-----17p14----17p14----17p14----17p14----17p14------------]
Gb|---------------------------------------------------------------------------|
Db|---------------------------------------------------------------------------|
Ab|---------------------------------------------------------------------------|
Eb|---------------------------------------------------------------------------|
      1step     1 step                                            1 1/2
                 trill
eb|--17p14----14----14h17-17p16-17-14-16p14-14----14h16p14--------------------|
Bb|--------17----17----------------------------17----------17-17b-------------|
Gb|---------------------------------------------------------------------------|
Db|---------------------------------------------------------------------------|
Ab|---------------------------------------------------------------------------|
Eb|---------------------------------------------------------------------------|
                                                               1 tr
eb|-----------------------------------------------4h5h7-----5h7h9------7h9h10-|
Bb|-----2h5p2----2h5p2----2h5p2--------------3h5h7-----5h7h9-----7h9h10-------|
Gb|--4b-------4b-------4b-------4b--2-----------------------------------------|
Db|---------------------------------------------------------------------------|
Ab|---------------------------------------------------------------------------|
Eb|---------------------------------------------------------------------------|
    1        1 tr     1 tr     1+   tr
eb|--------9h10h12---------------10h12h14--------10-12h14-----------14--------|
Bb|-9h10h12------------------------------10-12h14--------14---------17b-------|
Gb|---------------9h11h12----9h11--------------------------11-----0-----------|
Db|----------------------9h12-------------------------------------------------|
Ab|---------------------------------------------------------------------------|
Eb|---------------------------------------------------------------------------|
   outro                                                         tr  1
eb|---------------------------------------------------------------------------|
Bb|---------------------------------------------------------------------------|
Gb|---------------------------------------------------------------------------|
Db|---------------------------------------------------------------------------|
Ab|---------------------------------------------------------------------------|
Eb|---22222---22222-----------------------------------------------------------|

order
  intro
  verse
  beginning chorus
  verse
  beginning chorus
  chorus
  solo 
  chorus
  outro

  tr trill
  b  bend
  pm palm mute
| /  slide up
| \  slide down
| h  hammer-on
| p  pull-off
| ~  vibrato
| +  harmonic
| x  Mute note
===============================================================================
Comments