Black Label Society - Stillborn Chords & Tabs

 

Stillborn Chords & Tabs

Black Label Society Chords & Tabs

Version: 4 Type: Tab 0 ratings
1 star 2 stars 3 stars 4 stars 5 stars
comments

Stillborn Tab

   
band:black label society
song:stillborn
album:the blessed hellride

*: pinch harmonic
p: palm mute
[ss]: slide
v: virbrato
f: fast picking
tuning: f sharp


e --------------------------------------------
d --------------------------------------------
c --------------------------------------------
b --------------------------------------------
a -----2--------------------------------------
e 22222
  ******       12 times  up and down picking on this part
e --------------------------------------------
d --------------------------------------------
c --------------------------------------------
b 2--2--2-2-2---------------------------------
a 2--2--2-2-2------2--------------------------
e -00-00-0-0--22222---------------------------
   pp pp p p  ****** 2x

2nd chorus do

e ----4---------------------------------------
d ----5---------------------------------------
c ----4-4-6-4-6-------------------------------
b --2---x-x-x-x-------------------------------
a 4-2---2-4-2-4-------------------------------
e 2-------------------------------------------
        [ss][ss]

before solo
e --------------------------------------------
d --------------------------------------------
c --------------------------------------------
b --------------------------------------------
a --------------------------------------------
e 00-00-00-0----------------------------------
  pp pp pp p

solo

e --------------------------------------------
d --------------------------------------------
c 2--(4)---4benddown--------------------------
b --------------------------------------------
a --------------------------------------------
e --------------------------------------------
[ Tab from: http://www.guitartabs.cc/tabs/b/black_label_society/stillborn_tab_ver_4.html ]
e --------------------------------------------
d --------------------------------------------
c 2--(4)---4benddown-4benddown-4--------------
b --------------------------------------------
a --------------------------------------------
e --------------------------------------------
                               v
e --------------------------------------------
d --------------------------------------------
c -----------------------------16benddown-----
b ------------------14-16-14-16---------------
a ------14-16-14-16---------------------------
e 14-17---------------------------------------
   f  f  f  f  f  f  f  f  f  f                             
e -----------------------14-17bend-up---------
d -----------------14-16----------------------
c ------------14-16---------------------------
b ------14-16---------------------------------
a 14-16---------------------------------------
e --------------------------------------------
   f  f  f  f  f  f  f  f
e 14-17----14-17----14-17----14-17------------
d ------17-------17-------17-------17---------
c --------------------------------------------
b --------------------------------------------
a --------------------------------------------
e --------------------------------------------
        v         v        v        v
e --------------------------------------------
d --------------------------------------------
c ---14-16----14-16----14-16----14-16---------
b 16-------16-------16-------16---------------
a --------------------------------------------
e --------------------------------------------
  v        v        v        v      
e --------------------------------------------
d --------------------------------------------
c --------------------------------------------
b --------------------------------------------
a 14-14-14-14-14-14-14-14-14bend down and pull up while doing this-12
e --------------------------------------------
  *  *  *  *  *  *  *  *  *                                         v

e --------------------------------------------
d ------------------------------------17bend up untill end of solo and pick
c ------------------------------14-16---------
b ------------14-16-------14-16---------------
a ------14-16-------14-16---------------------
e 14-17---------------------------------------
Comments