Black Label Society - Stillborn Chords & Tabs

 

Stillborn Chords & Tabs

Black Label Society Chords & Tabs

Version: 2 Type: Bass Tab 0 ratings
1 star 2 stars 3 stars 4 stars 5 stars
comments

Stillborn Bass Tab

(8x)Intro
:--------------------|
:--------------------|
:--------------------|
:0--2-2-2-2--0-2-0-2-|

(8x)Verse
:--------------------|
:--------------------|
:--------------------|
:0--2-2-2-2--0-2-0-2-|

Chorus
(1x)
:------------------------------|
:------------------------------|
:------------------------------|
:0-0-0-0-0-0-0-0-0-0-0-0-0-0-0-|
(2x)
:--------------------|
:--------------------|
:--------------------|
:0--2-2-2-2--0-2-0-2-|
(1x)
:------------------------------|
:------------------------------|
:------------------------------|
:0-0-0-0-0-0-0-0-0-0-0-0-0-0-0-|
(2x)
:--------------------|
:--------------------|
:--------------------|
:0--2-2-2-2--0-2-0-2-|

(10x)Verse
:--------------------|
:--------------------|
:--------------------|
:0--2-2-2-2--0-2-0-2-|
[ Tab from: http://www.guitartabs.cc/tabs/b/black_label_society/stillborn_btab_ver_2.html ]
Chorus
(1x)
:------------------------------|
:------------------------------|
:------------------------------|
:0-0-0-0-0-0-0-0-0-0-0-0-0-0-0-|
(2x)
:--------------------|
:--------------------|
:--------------------|
:0--2-2-2-2--0-2-0-2-|
(1x)
:------------------------------|
:------------------------------|
:------------------------------|
:0-0-0-0-0-0-0-0-0-0-0-0-0-0-0-|
(2x)
:-----------------------------|
:------0--0-------------------|
:-----------2-3-2-0--2-3-2-0--|
:0--2-------------------------|

:-----------------------|
:------0--0-------------|
:-----------------------|
:0--2-------0-0-0-0-0-0-|

(12x)Solo
:--------------------|
:--------------------|
:--------------------|
:0--2-2-2-2--0-2-0-2-|

Chorus
(1x)
:------------------------------|
:------------------------------|
:------------------------------|
:0-0-0-0-0-0-0-0-0-0-0-0-0-0-0-|
(2x)
:--------------------|
:--------------------|
:--------------------|
:0--2-2-2-2--0-2-0-2-|
(1x)
:------------------------------|
:------------------------------|
:------------------------------|
:0-0-0-0-0-0-0-0-0-0-0-0-0-0-0-|
(5x)
:-----------------------------|
:------0--0-------------------|
:-----------2-3-2-0--2-3-2-0--|
:0--2-------------------------|

:-----------------------|
:------0--0-------------|
:-----------------------|
:0--2-------0-0-0-0-0-0-|

(3x)Outro
:--------------------|
:--------------------|
:--------------------|
:0--2-2-2-2--0-2-0-2-|
(1x)
:----------------|
:----------------|
:----------------|
:0--2-2-2-2--0-2-|
Comments