Black Label Society - Stillborn Chords & Tabs

 

Stillborn Chords & Tabs

Black Label Society Chords & Tabs

Version: 1 Type: Bass Tab 0 ratings
1 star 2 stars 3 stars 4 stars 5 stars
comments

Stillborn Bass Tab

   
--------------------------------------------------------------------------------
                   Still Born - Zakk Wylde's Black Label Society
--------------------------------------------------------------------------------

Artist: Zakk Wylde's Black Label Society
Song: Still Born (Track 3)
Albulm: The Blessed Hellride
Tabbed by: Zero is Great Man
Tunning: Half Step Down: Eb Ab Db Gb

Main Riff: (Intro/Verse/Fill/Guitar Solo/Outro)
Gb|-----------------------|
Db|-----------------------|
Ab|-----------------------|
Eb|-2-2-2-2-2-0-2-2-2-2-2-|

Chorus: "The Fellings I once lost are now..."
Gb|---------------------------|
Db|---------------------------|
Ab|---------------------------|
Eb|-7\0-0-0-0-0-0-0-0-0-0-0-0-|

"I've waited here for you"
Gb|--------------------------------------|
Db|--------------------------------------|
Ab|----------5-5-5-5-5-5-5-5-5-----------|
Eb|-0-0-0-0--------------------x-x-x-x-x-|
[ Tab from: http://www.guitartabs.cc/tabs/b/black_label_society/stillborn_btab.html ]
"So Lo-ng"
Gb|-------------------------------------------|
Db|-------------------------------------------|
Ab|----------5-5-5-5-5-5-5-5-5--2-3-2-3-2-3-2-|
Eb|-0-0-0-0-----------------------------------|


Lyrics:

Ow-w, Ow-w,
Blind me Erase what was,
Still Born I have Become,
The Feelings I once felt are now dead and gone.
I've waited here for you for so very long.
So empty, just a shell of a man, still born, this I understand.
The Fellings I once felt are now dead and gone.
I've waited here for you for so very, lon-g.
I've waited here for you, so lon-g.
I've waited here for you, so lon-g.
I've waited here for you, for you.
The feelings I once felt are now dead and gone,
I've waited here for you for so very lon-g,
I've waited here for you, so lon-g.
I've waited here for you, so lon-g.
I've waited here for you, so lon-g.
I've waited here for you, so lon-g.
I've waited here for you, for you.

| x - Muted note
| \ - Slide Down

================================================================================
Comments