Black Label Society - Sold My Soul Chords & Tabs

 

Sold My Soul Chords & Tabs

Black Label Society Chords & Tabs

Version: 2 Type: Tab 0 ratings
1 star 2 stars 3 stars 4 stars 5 stars
comments

Sold My Soul Tab

   
Black Label Society
Sold My Soul   INTRO

Standard Tuning  E  A  D  G  B  E
[ Tab from: http://www.guitartabs.cc/tabs/b/black_label_society/sold_my_soul_tab_ver_2.html ]
e-------------------------------------------|
B-------------------------------------------|
G----------------0-------------------0------|
D------------4-------------------4----------|
A--------2-------------------2--------------|
E----0-------------------3------------------|


e-------------------------------------------|
B-------------------------------------------|
G---------0----------7h6--6-6---7h6--6-6----|
D-----7--------7-----7----7-7---7----7-7----|
A-5------------------0----0-0---0----0-0----|
E-------------------------------------------|
Comments