Black Label Society - Sold My Soul Chords & Tabs

 

Sold My Soul Chords & Tabs

Black Label Society Chords & Tabs

Version: 1 Type: Bass Tab 0 ratings
1 star 2 stars 3 stars 4 stars 5 stars
comments

Sold My Soul Bass Tab

Sold my Soul by Zakk Wylde
Bass Part by ???
Tabbed by Dan Bogosian (UtBDan)
Visit UtBDan's band at:
http://www.geocities.com/underthbed/


INTRO:
G ------------------|
D ------------------|
A ---------5----0-0-|
E -0---3------------|

CHORUS:
G ----------------------------|
D ----------------------------|
A ---------------5---5-0------|
E -00---01233---3---------3---|

POST-CHORUS:
G ----------------|
D -------5--------|
A -----5----0-----|
E -0-3--------321-|

G ----------------|
D -------5--------|
A -----5----0-----|
E -0-3--------3~~-|

VERSE:

It does all of these variations during the verse.
[ Tab from: http://www.guitartabs.cc/tabs/b/black_label_society/sold_my_soul_btab.html ]
G ------------------------------|
D ------------------------------|
A ---------------55---5-00------|
E -00---01233---3----------33---|

G ---------------------------|
D ---------------------------|
A ---------------55----0--5--|
E -00---01233---3--------3---|

G ---------------------------|
D ---------------------------|
A ---------------5---5-0-----|
E -00---01233---3---------3--|

G -------------------------|
D -------------------------|
A ---------------5---0-----|
E -00---01233---3-------3--|

G ---------------------------|
D ----------------------2----|
A ---------------5---5-0---5-|
E -00---01233---3---------3--|

G ----------------------------|
D ----------------------2-----|
A ---------------5-----0---5--|
E -00---01233---3---------3---|

You can also do all those with only 1 open E at the beginning.
Comments