Black Label Society - Say What You Will Chords & Tabs

 

Say What You Will Chords & Tabs

Black Label Society Chords & Tabs

Version: 1 Type: Tab 0 ratings
1 star 2 stars 3 stars 4 stars 5 stars
comments

Say What You Will Tab

Main Riff
                   1st ending     2nd ending
|----------------|--------------|-----------|
|----------------|--------------|-----------|
|----------------|--------------|-----------|
|2/2\3-0-2-0-2--4|-------2------|----5ph----|
|2/3\2-0-2-0-2--2|-2-3-4---4-3-2|444--------|
|----------------|--------------|222--------|
                  PM............
Oh yeah i tried....
[ Tab from: http://www.guitartabs.cc/tabs/b/black_label_society/say_what_you_will_tab.html ]
|-----------------|-----|-----|--------|
|-----------------|-----|-----|--------|
|-----------------|-----|-----|--------|
|-----------------|--4-6|--6-4|--------|
|4-----4-----4----|--2-4|--4-2|-4-4-4//|
|2-0-0-2-0-0-2-0-0|-----|-----|-2-2-2//|
                    1st   2nd   Last (I play a slide, it works well)
Chorus                          (You kept coming back...for more)

|-------------------|-----------------|
|-------------------|-----------------|
|-------------------|-----------------|
|--------------7--4-|-----------------|
|4------4/6----5--2-|4-----4-----4----|
|2------2/4---------|2-0-0-2-0-0-2-0-0|
      Repeat           Ending  (Power Chords on "More...More")
Before the Solo

|----------------------|
|----------------------|
|----------------------|
|----------------------|
|4\2-4---4---4-44444444|
|2-0-2-0-2-0-2-22222222|

Solo Backing

|-----------------|-----|-----|
|-----------------|-----|-----|
|-----------------|-----|-----|
|-----------------|--4-6|--6-4|
|4-----4-----4----|--2-4|--4-2|
|2-0-0-2-0-0-2-0-0|-----|-----|
Comments