Black Label Society - No Other Chords & Tabs

 

No Other Chords & Tabs

Black Label Society Chords & Tabs

Version: 1 Type: Tab 0 ratings
1 star 2 stars 3 stars 4 stars 5 stars
comments

No Other Tab

   
Artist:Black Label Society
Song:No Other
Album:Hangover Music Vol.6
Transcripter:ld zpln904

key: h-hammer on        *standard tuning
     p-pull off
     b-bend
     r-release
     gb-grad. bend
     tr-trill
     ( )*-harmonic
     ah-artificial harmonic
     ~-vibrato
     /-slide up
     \-slide down

Intro:

E:--0------------0----(0)------------------------|
B:--5\3-0--0-----0----(0)------------------------|
G:---------3\2-0-2----(2)------2p0---0-----------|
D:---------------------------------2---0---------|
A:---------------------------------------0h1p0---|
E:---------------------------------------------3\|

Verse:

E:--------------------------------------------------------|
B:--------------------------------------------------------|
G:-----7----7-------7-----7-----------7----7--------------|
D:-----5----5---------0-----0---------5----5------------5-|
A:-----7----7-------------------------7----7----------5-5-|
E:-0-----(0)------6-----5-----3\--0-----(0)-----5-6-7-----|

Pre-chorus:

E:--0---0-0--0-0--0-0--0-0--0-0---0---0-0------------------------|
B:--0---0-0--0-0--0-0--0-0--0-0---0---0-0------------------------|
G:--6---6-6--6-6--6-6--6-6--6-6---6---6-6------------------------|
D:--7---7-7--7-7--7-7--7-7--7-7---7---7-7------------------------|
A:--0---0-0--0-0--0-0--0-0--0-0---0---0-0--0h1p0---0---0h1p0---0-|
E:-----------------------------------------------3---3-------3---|

E:----------------------|
B:----------------------|
G:----------------------|
D:----------------------|
A:---(0)--0h1p0---0-----|
E:--------------3---3-0-|

Chorus:
     Em           G          D        A
E:-0--0-0-0--3---3-3-3-3---2-2-2----------|
B:-0--0-0-0--3---3-3-3-3---3-3-3---2--2-2-|
G:-0--0-0-0--0---0-0-0-0---2-2-2---2--2-2-|
D:-2--2-2-2--0---0-0-0-0---0-0-0---2--2-2-|
A:-2--2-2-2----------------0-------0--0-0-|
E:-0--0-0-0--3---3-3-3-3------------------|

Chorus Ending:

E:-3--3-3----------------|
B:-3--3-3-3---3-3--------|
G:-0--0-0-2---2-2--------|
D:-0--0-0-0---0-0--------|
A:-------------------4-7-|
E:-3--3-3-2---2-2-/5-----|
"Now I long for what I once had known"...

Solo:
[ Tab from: http://www.guitartabs.cc/tabs/b/black_label_society/no_other_tab.html ]
E:------------------------------------------------------------------------|
B:--tr-----------0--------------------------------------------------------|
G:-9p7h9---/20\----0--2gb(3)-----------------------------2gb(3)-----------|
D:----------------------------5b(7)r5-----------------------------5b(7)r5-|
A:----------------------------------------5b(7)r5--/17\-------------------|
E:------------------------------------------------------------------------|

E:-----------------------------12--15gb(16)-----------------------14--|
B:---------15b(17)r15-15gb(16)---12--------------------15----14-------|
G:-------------------------------------------------------14-----------|
D:---9~~~~----------------------------------(12)*-0-12----------------|
A:--------------------------------------------------------------------|
E:--------------------------------------------------------------------|

E:--12---------------------------------------12------15-12--12-16-14-12-|
B:----15----------------------------15-12--12---15-12-----15------------|
G:------12gb(13)---------12-15-14-12-----15-----------------------------|
D:---------------14\-/14------------------------------------------------|
A:----------------------------------------------------------------------|
E:----------------------------------------------------------------------|

E:------15-18-17-15---15-19-15-19-15-16-15-18-------19b(22)gr19-|
B:-18-18------------17------------------------------------------|
G:---------------------------------------------19-17------------|
D:--------------------------------------------------------------|
A:--------------------------------------------------------------|
E:--------------------------------------------------------------|

E:---17-------------------|
B:-20---(22)gr20-17-------|
G:------------------19~~~-|
D:------------------------|
A:------------------------|
E:------------------------|

End on:

E:-0-|
b:-0-|
G:-0-|
D:-2-|
A:-2-|
E:-0-|


Song progression:

Intro
Verse x7
Pre-Chorus
Verse
Pre-Chorus
Chorus x3
Chrous Ending
Verse x6
Pre-Chorus
Verse
Pre-Chorus
Chorus x3
Chorus Ending
Verse x2
Solo
Pre-Chorus
Verse
Pre-Chorus
Chorus x3
Chorus Ending x3
End on Em

Enjoy!
Comments