Black Label Society - Mrs J Chords & Tabs

 

Mrs J Chords & Tabs

Black Label Society Chords & Tabs

Version: 2 Type: Tab 0 ratings
1 star 2 stars 3 stars 4 stars 5 stars
comments

Mrs J Tab

   
#----------------------------------PLEASE NOTE--------------------------------#
#This file is the author's own work and represents their interpretation of the#
#song. You may only use this file for private study, scholarship, or research.#
#-----------------------------------------------------------------------------#
#-- File created with Instab - http://www.pconline.com/~smcarey/instab.html --#
#-----------------------------------------------------------------------------#

Author/Artist: Zakk Wylde
Title: Mrs. J
Album: No More Tears Demo
Transcribed by: zwbls_29
Email: turneynr@uwec.edu

From: www.BlackLabelSociety.net

there isn't any vibrato in this version but you should be
able to figure out where it's supposed to go;  there isn't
every rythym part in here but i can get it if you want it
If you want the backing part to the solo part, email me

----------0-------------5-----------------0-----------------------------------|
------3-----3---3---3-----3---3-------3-----3---------------------------------|
--------0-----0-------0-----0-----------0-----0---------0---------------------|
----5-------------4-------------4-4\2-----------2---0h2---2-------------------|
--------------------------------------------------3---------3-----------------|
------------------------------------------------------------------------------|
       part b

----------0-------------5-----------------0-----------------------------------|
------3-----3---3---3-----3---3-------3-----3---------------------------------|
--------0-----0-------0-----0-----------0-----0---------0---------------------|
---/5-------------4-------------4-4\2-----------2---0h2---2-------------------|
--------------------------------------------------3---------3-----------------|
------------------------------------------------------------------------------|
  this is with slide part C

--------------------------10--------------------------------------------------|
---7-7h8--8/10--10/12--12----12-10-12-10\8-8---8/10-8-------------------------|
---------------------------------------------9--------------------------------|
------------------------------------------------------------------------------|
------------------------------------------------------------------------------|
------------------------------------------------------------------------------|


------------10----------------------------------------------------------------|
---10/12-12----12-10-10-12-8-8-10---------------------------------------------|
----------------------------------9-------------------------------------------|
------------------------------------------------------------------------------|
------------------------------------------------------------------------------|
------------------------------------------------------------------------------|
      part d

------------------10----------------------------------------------------------|
---/10-/12-/13-13----13-12-12-13-12-10-10-------------------------------------|
------------------------------------------------------------------------------|
------------------------------------------------------------------------------|
------------------------------------------------------------------------------|
------------------------------------------------------------------------------|


------------------10----------------------------------------------------------|
---/10-/12-/13-13----13-12-7h8-7----------------------------------------------|
------------------------------------------------------------------------------|
------------------------------------------------------------------------------|
------------------------------------------------------------------------------|
------------------------------------------------------------------------------|
                                   repeat C then this
[ Tab from: http://www.guitartabs.cc/tabs/b/black_label_society/mrs_j_tab_ver_2.html ]
-------------10---------------------------------------------------------------|
----10/12-12----12-10-10-12-10-8-7--------------------------------------------|
-----------------------------------9------------------------------------------|
------------------------------------------------------------------------------|
------------------------------------------------------------------------------|
------------------------------------------------------------------------------|


-----------------------10--------------------------------------10-12----------|
----8--8h10-8-10b11r-8----10b11r8-----8-10b11r-8-10-10-8-12b13-------10b8-----|
----------------------------------7h9-----------------------------------------|
------------------------------------------------------------------------------|
------------------------------------------------------------------------------|
------------------------------------------------------------------------------|
                                    repeat d  then this

------------------10----------------------------------------------------------|
----/10-/12-13-13----13-12-10-8----8h108-/12-10-12-8---8h10h8-/12\10-8-10-128-|
-------------------------------7-9-------------------9------------------------|
------------------------------------------------------------------------------|
------------------------------------------------------------------------------|
------------------------------------------------------------------------------|


------------------------------------------------------------------------------|
--8-8h10-----8-10/12\10-8------------------------8-10-8-7-8---7---------------|
-----------9--------------9/11\9-7--------7-9-11------------9---9-7-----------|
-----------------------------------7-9-10-------------------------------------|
------------------------------------------------------------------------------|
------------------------------------------------------------------------------|


--10--------------------------------------------------------------------------|
----10------------------------------------------------------------------------|
-------9b11-7---7/9-----------------------------------------------------------|
--------------9---------------------------------------------------------------|
------------------------------------------------------------------------------|
------------------------------------------------------------------------------|
                                then repeat b 2x  then

------------10----------------------------------------------------------------|
---10/12-12----12-10-10-12-10\8-8---8/10-8------------------------------------|
----------------------------------9-------------------------------------------|
------------------------------------------------------------------------------|
------------------------------------------------------------------------------|
------------------------------------------------------------------------------|


-----------10-----------------------------------------------------------------|
--10/12-12----12-10-12-10-8----------7h8--------------------------------------|
-----------------------------------------9------------------------------------|
------------------------------------------------------------------------------|
------------------------------------------------------------------------------|
------------------------------------------------------------------------------|


------------------------------------------------------------------------------|
-------------8-8h10-8-7---------/12-------------------------------------------|
---------7-9------------7-----------------------------------------------------|
--7-9-10------------------7---------------------------------------------------|
----------------------------5-------------------------------------------------|
------------------------------------------------------------------------------|
Comments