Black Label Society - Mass Murder Machine Solo Chords & Tabs

 

Mass Murder Machine Solo Chords & Tabs

Black Label Society Chords & Tabs

Version: 1 Type: Tab 0 ratings
1 star 2 stars 3 stars 4 stars 5 stars
comments

Mass Murder Machine Solo Tab

   
Zakk Wylde/BLS
Mass Murder Machine (Solo)
Tabbed By: Austin (ironman17495@yahoo.com)


Tuning is Drop D and ½ Step Down

     T                             P.H.
--9-10-Repeat a Bunch of-------------------------------------------
-------Times and Slowly---13b15~-----------------------------------
--------Bend the Note-------------12b13---12b14r10~----------------
-----------------------------------^-------------------------------
-------------------------------Strike The String-------------------
------------------------------By The Bridge Pickup----------------

                    9x                 H  P
-I--------------------I--------10-13-10_13_10----------------------
-I.--------13--------.I-----13----------------13-10-13b15----------
-I---12b15-Hold The---I--12----------------------------------------
-I.----------Bend----.I--------------------------------------------
-I--------------------I--------------------------------------------
-I--------------------I--------------------------------------------


-10-------------------------------------
----13-10---------13-10-13-10-----------
----------12b14~------------------------
-----------------------------12b14r10~--
----------------------------------------
----------------------------------------
[ Tab from: http://www.guitartabs.cc/tabs/b/black_label_society/mass_murder_machine_solo_tab.html ]
       P  P      5x
-I---16_15_13-15---I-17b20-17-16-15-13-15-15b16-15b17-13---------------
-I.---------------.I-------------------------------------15b18-13b15r13
-I-----------------I---------------------------------------------------
-I.---------------.I---------------------------------------------------
-I-----------------I---------------------------------------------------
-I-----------------I---------------------------------------------------


-------------------------------------------------10----------------
-------------------------------------------10-13-------------------
-------------10-12-------10-12-------10-12-------------------------
-------10-12-------10-12-------10-12-------------------------------
-10-12-------------------------------------------------------------
-------------------------------------------------------------------

 Trem. Pick
  V                                 2or3x
-13-10-------------------I---------------I-------------------------
-------13-10-------------I.-------------.I-------------------------
-------------12-10-------I--12-10--------I-12~---------------------
-------------------12-10-I.-------12-10-.I-------------------------
-------------------------I---------------I-------------------------
-------------------------I---------------I-------------------------

Comments