Black Label Society - Low Down Chords & Tabs

 

Low Down Chords & Tabs

Black Label Society Chords & Tabs

Version: 1 Type: Tab 0 ratings
1 star 2 stars 3 stars 4 stars 5 stars
comments

Low Down Tab

   
#----------------------------------PLEASE NOTE--------------------------------#
#This file is the author's own work and represents their interpretation of the#
#song. You may only use this file for private study, scholarship, or research.#
#-----------------------------------------------------------------------------#
#-- File created with Instab - http://www.pconline.com/~smcarey/instab.html --#
#-----------------------------------------------------------------------------#

Author/Artist: Black Label Society
Title: Low Down
Album: Sonic Brew
Transcribed by: Bill Addis
Email: billaddis@hotmail.com
From: www.blacklabelsociety.net


Drop B tuning: low to high - B,A,D,G,B,e

-x-----------------------------------------------------------------------------
-x-----------------------------------------------------------------------------
-x-----------------------------------------------------------------------------
-x-----------------------------------------------------------------------------
-x-----------------------------------------------------------------------------
-x------17\--------------------------------------------------------------------
 rake strings behind bridge (on tune-o-matic Les Paul type bridge)
[ Tab from: http://www.guitartabs.cc/tabs/b/black_label_society/low_down_tab.html ]
------------------------------------------|------------------------------------
------------------------------------------|------------------------------------
------------------------------------------|----------------7--7------9--9------
------------------------------------------|----------------7--7------9--9------
-------ah-----------------------------ah--|-------ah-------5--5------7--7------
-5-6-7-3~--0----6-7-6~--6-5-6-0-3-5-5-3~--|-5-6-7-3~--0------------------------
 main riff/chorus riff    . . . . . .

----------------------------|-----------------|--------------------------------
----------------------------|-10-7------------|--------------------------------
----------------------------|------10-9-7-----|---slide-up-and-down-string-----
----------------------------|-------------9---|---while-picking----------------
----------------------------|-----------------|--x/x/x/x\x\x\x/x/x/x\x\x\------
-3~-0---3~-0---3~-0---3~-0--|-----------------|--------------------------------
 verse riff

-------------------------------------------------------------------------------
-------------------------------------------------------------------------------
-----------------7--9------7--9------7--9--------------------------------------
-----------------7--9------7--9------7--9--------------------------------------
-----------------5--7------5--7------5--7--------------------------------------
--5-6-7-3~--0---"An-chor---my-soul---no-more"----------------------------------
 chorus riff ending

-------------------------------------------------------------------------------
-------------------------------------------------------------------------------
-------------------------------------------------------------------------------
-------------------------------------------------------------------------------
-----------------------------------5h7p5h7p5--------------------------ah-----ah
-0-10-12-0-10-12-0-10-12-0-10-12-0-----------0-10-12-0-10-12-0-10-56553~-56553~
 interlude riff (w/wah)


rock on!

-krakpot
Comments