Black Label Society - Lost Heaven Chords & Tabs

 

Lost Heaven Chords & Tabs

Black Label Society Chords & Tabs

Version: 1 Type: Tab 0 ratings
1 star 2 stars 3 stars 4 stars 5 stars
comments

Lost Heaven Tab

#-----------------------------------------------------------------------------#
#-- File created with Instab - http://www.pconline.com/~smcarey/instab.html --#
#-----------------------------------------------------------------------------#

Author/Artist: Black Label Society
Title: Lost Heaven

I decided after reading an article on a Fear Factory guitarist meeting up with
Zakk Wylde to go out and tab some Black Label stuff.  This is the song I chose.
Standard Tuning
[ Tab from: http://www.guitartabs.cc/tabs/b/black_label_society/lost_heaven_tab.html ]
Intro/Verse
|-------------------------------------------------------------
|-------------------------------------------------------------
|----4-----4-----4-----4-----4--------4---3-4----4---3-4-3----
|------6-----6-----6-----6-----6---------------------------2--
|-4------4-----4-----4-----4-------2----2------2---2----------
|-------------------------------------------------------------
                                     
Chorus
|----------------------------------------------------------------------------
|--6----6---------------------6----6-----------------6----6--------------6---
|--6----6----3----------------6----6----3------------6----6----3---------6---
|--6----6----4--6----4-6-4----6----6----4--6----4-6--6----6----4--6---4--6---
|--4----4----4----4--------4--4----4----4----4-------4----4----4----4----4---
|------------2--------------------------2----------------------2-------------
                                                                              
----------------------------------------------------------------------------
-6-----------------6----6---------------------6----6------------------------
-6----3------------6----6----3----------------6----6----3-------------------
-6----4---5--4--2--6----6----4--6----4-6-4----6----6----4--6---4------7-----
-4----4---5--4--2--4----4----4----4--------4--4----4----4----4------7-----6-
------2---3--2--0------------2--------------------------2---------5-----4---
                                                                              
---------------2--2--2--
---------------2--2--2--
------------3--3--3--3--
-6--4----4--4--4--4--4--
----4----4--4--4--4--4--
----2----2--2--2--2--2--

Over the second verse there's another instrument playing that starts off like
this.  I didn't work out the whole part cos it's not overly hard and I don't know
whether it's a guitar or not.
|----------13-----------------------------13---
|---------------------------14-----------------
|-9--------------------------------------------
|----------------11----------------------------
|----------------------------------------------
|----------------------------------------------

End the song on an F# barre chord.
Sorry you're going to have to work out the order but it's not overly hard.

any questions? andrewbiles@hotmail.com
_______________
Lyrics (www.sing365.com):

My lost heaven
has been turned upside down
dead and buried
is the joy that i once found
my lost heaven
has sought refuge down below
ain't no ocean
i wouldnt cross where i wont go

as i walk this world
tired and alone
got one foot in the grave
lord, help me make it home
i carry your pain
my words bleed straight and true
oh, if it leads me to you

My lost heaven
as long as the rotted day
strength through blood
That one thought which bears my name
dead and buried
for the end has run it's course
dogs of war,
return never to be lost

as i walk this world
tired and alone
got one foot in the grave
lord, help me make it home
i carry your pain
my words bleed straight and true
oh, if it leads me to you

as i walk this world
tired and alone
got one foot in the grave
lord, help me make it home
i carry your pain
my words bleed straight and true
oh, if it leads me to you
leads me to you
leads me to you
leads me to you
leads me to you
Comments