Black Label Society - Just Killing Time Chords & Tabs

 

Just Killing Time Chords & Tabs

Black Label Society Chords & Tabs

Version: 1 Type: Tab 0 ratings
1 star 2 stars 3 stars 4 stars 5 stars
comments

Just Killing Time Tab

   
Band- Black Label Society
Song- Battering Ram

Tuning: Drop Db
Db Ab Db Gb Bb Eb


|--------------------------------------------------------------|
|--------------------------------------------------------------|
|--------------------------------------------------------------|
|--------------------------------------------------------------|
|-1--0-0-0-0-0--1--0-0-0-0-0--1--0-0-0-0-0--1--0-0-0-0-0-------|
|-1--0-0-0-0-0--1--0-0-0-0-0--1--0-0-0-0-0--1--0-0-0-0-0-------|

|--------------------------------------------------------------|
|--------------------------------------------------------------|
|--------------------------------------------------------------|
|--------------------------------------------------------------|
|-1--0-0-0-0-0---1--0-0-0-0-0------0-0------0-0-0-0-0----------|
|-1--0-0-0-0-0---1--0-0-0-0-0------0-0--3^--0-0-0-0-0--3^------|

[ Tab from: http://www.guitartabs.cc/tabs/b/black_label_society/just_killing_time_tab.html ]
|--------------------------------------------------------------|
|--------------------------------------------------------------|
|--------------------------------------------------------------|
|--------------------------------------------------------------|
|--5-3-3-3-5-3-3-3--5-3-3-3-5-3-3-3-3--5-3-3-3-5-3-3-3-3-------|
|--0-0-0-0-0-0-0-0--0-0-0-0-0-0-0-0-0--0-0-0-0-0-0-0-0-0-------|
There is also this going on behind the main rhythm.


chorus

eb-------------------------------------------------------------------|
Bb-------------------------------------------------------------------|
Gb-------------------------------------------------------------------|
Db-------------------------------------------------------------------|
Ab-----5--3-0--6-5-3-0-1-3-1-0-1-1-----------------------------------|
Db--0----------6-5-3-0-1-3-1-0-1-1-----------------------------------|

End of song
|--------------------------------------------------------------|
|--------------------------------------------------------------|
|--------------------------------------------------------------|
|--------------------------------------------------------------|
|-1-1-1-1-1-1-1-1----------------------------------------------|
|-1-1-1-1-1-1-1-1----------------------------------------------|
Comments