Black Label Society - In This River Chords & Tabs

 

In This River Chords & Tabs

Black Label Society Chords & Tabs

Version: 4 Type: Tab

In This River Tab

Ok This Is The Solo From in This River Of Black Label It May Not Be
Very Accurate But I Give It A Shot
                    ~~~~    ~~~~   ~~~~   ~~~~  ~~~~  ~~~~   ~~~~
E------------------------------------------------------------------------|
B------------------------------------------------------------------------|
G---2b3r2b3r2-0---4-------5-------4-----2------4-----5-----4------2b4--2\|
D------------------------------------------------------------------------|
A------------------------------------------------------------------------|
E------------------------------------------------------------------------|
[ Tab from: http://www.guitartabs.cc/tabs/b/black_label_society/in_this_river_tab_ver_4.html ]
This Is Where The Fast Shit Starts     With Wah
          ~~~~
E----------------1512------151217121512-----1512------141215121415-------|
B---15b17-------------1512-------------1512------1512---------------1512-|
G------------------------------------------------------------------------|
D------------------------------------------------------------------------|
A------------------------------------------------------------------------|
E------------------------------------------------------------------------| 
                                     ~~~~
E--1412------141215121412121212-----------12--------------12-------------|
B-------1512--------------------15b17--------1512----1215----------------|
G-------------------------------------------------14---------------------|
D------------------------------------------------------------------------|
A------------------------------------------------------------------------|
E------------------------------------------------------------------------|
              ~~~~           ~~~~             ~~~~               ~~~~
E------------------------------------------------------------------------|
B---12------------------------------15--15b17------16--------------------|
G-------14b16-------12-14b16-----------------------15b16------15---------|
D------------------------------------------------------------------------|
A------------------------------------------------------------------------|
E------------------------------------------------------------------------|

Wel This Is My Version Of I Think It's Almost 100% Correct So Please Rate:)
Remember: This Solo Is Zakk's Tribute To Dime So Learn it Correct:)