Black Label Society - In This River Chords & Tabs

 

In This River Chords & Tabs

Black Label Society Chords & Tabs

Version: 3 Type: Tab

In This River Tab

   
---------------------------------------------------------------------------
                     In This River- Black Label Society
---------------------------------------------------------------------------
Tabbed by:Asa Shaw aka Syringe
Email:lord_krycek@yahoo.com

Tuning:all strings half step down
chords for the piano part are:Em,G,C,D and chorus is G,C,G,C,G,Am,C



     ~~~~~~~~~~~~~           ~~~~~~~~~~~~~~
e|--1-------|---(1)----|----13----|--(13)-|---8--9----|---8---6--|--8---9--|
B|----------|----------|----------|-------|-----------|----------|---------|
G|----------|----------|----------|-------|-----------|----------|---------|
D|----------|----------|----------|-------|-----------|----------|---------|
A|----------|----------|----------|-------|-----------|----------|---------|
E|----------|----------|----------|-------|-----------|----------|---------|

        ~~~~~~~~~~~~~~~~~~~~~~~~~~~~~~    ~~~~~~~~~~~      ~~   ~~~~~~~~~~~~
e|--8--6----|---(6)----|---(6)----|-(6)-25---|---(25)----|6---25---|-(25)--|
B|----------|----------|----------|----------|-----------|---------|-------|
G|----------|----------|----------|----------|-----------|---------|-------|
D|----------|----------|----------|----------|-----------|---------|-------|
A|----------|----------|----------|----------|-----------|---------|-------|
E|----------|----------|----------|----------|-----------|---------|-------|

     ~~~~~~                                                         ~~  ~~
e|(25)------|----------|----------|------|-----------|----------|----------|
B|----------|----------|----------|------|-----------|----------|--4---2---|
G|----------|----------|----------|------|-----------|----------|----------|
D|----------|----------|----------|------|-----------|----------|----------|
A|----------|----------|----------|------|-----------|----------|----------|
E|----------|----------|----------|------|-----------|----------|----------|
     ~~~~~~~    ~~  ~~       ~~~~~           ~~~~~~~~~~~~~~~~~~
e|----------|----------|----------|------|--8--------|--(8)-----|--8---9---|
B|--1-------|--4---2---|----1-----|------|-----------|----------|----------|
G|----------|----------|----------|------|-----------|----------|----------|
D|----------|----------|----------|------|-----------|----------|----------|
A|----------|----------|----------|------|-----------|----------|----------|
E|----------|----------|----------|------|-----------|----------|----------|
                                      ~~~~~~~~~~~  
e|---8--6---|--8---9---|--8--6----|--8-------|-(8)---13--|--11------|------|
B|----------|----------|----------|----------|-----------|----------|------|
G|----------|----------|----------|----------|-----------|----------|------|
D|----------|----------|----------|----------|-----------|----------|------|
A|----------|----------|----------|----------|-----------|----------|------|
E|----------|----------|----------|----------|-----------|----------|------|

            ~~~~~~~~~~~~~~~~~         ~~~~~~~~~~~~~~
e|------|--11------|-(11)-----|--23--11--|-(11)------|-16--18-16|---15-----|
B|------|----------|----------|----------|-----------|----------|----------|
G|------|----------|----------|----------|-----------|----------|----------|
D|------|----------|----------|----------|-----------|----------|----------|
A|------|----------|----------|----------|-----------|----------|----------|
E|------|----------|----------|----------|-----------|----------|----------|
[ Tab from: http://www.guitartabs.cc/tabs/b/black_label_society/in_this_river_tab_ver_3.html ]
         ~~~~~~~~~~~~~~~~~~~~~~~~~~~~~~~~~~            ~~~~~~~~~~~
e|-18--20--|---(20)--|--(20)---|-(20)--|--23---11--|--(11)----|-16-18--16|
B|----------|---------|--------|-------|-----------|----------|----------|
G|----------|---------|--------|-------|-----------|----------|----------|
D|----------|---------|--------|-------|-----------|----------|----------|
A|----------|---------|--------|-------|-----------|----------|----------|
E|----------|---------|--------|-------|-----------|----------|----------|

                    ~~~~~~~~~~     GUITAR SOLO      
e|---15---|---18--20-|--(20)----|------------|-----------|----------|------|
B|--------|----------|----------|--0^--------|---1---2---|--1-------|-1--2-|
G|--------|----------|----------|-------3----|-----------|------3---|------|
D|--------|----------|----------|------------|-----------|----------|------|
A|--------|----------|----------|------------|-----------|----------|------|
E|--------|----------|----------|------------|-----------|----------|------|

                ~~~~~~
e|----------|--13---16-------16----18-16----16-------16----18----16----16--|
B|--1---0^--|---------17-18----18-------18----17-18----18-----18----18-----|
G|------3^--|--------------------------------------------------------------|
D|----------|--------------------------------------------------------------|
A|----------|--------------------------------------------------------------|
E|----------|--------------------------------------------------------------|

                                                                                   
e|----18----16-14-------------16-----------13-16-18------------------------|
B|-18----18-------18-18-17-18----18-16--18----------18-18-18-16-18-18-13-12|
G|-------------------------------------------------------------------------|
D|-------------------------------------------------------------------------|
A|-------------------------------------------------------------------------|
E|-------------------------------------------------------------------------|

          ~~
e|----------|
B|-11-11-13-|
G|----------|
D|----------|
A|----------|
E|----------|

                                     ~~~~~~~    ~~~~~~~~~~~~~~~~~~~~~~~~~~
e|-------11-13-|----6^--6^--|---|----4--|-(4)--11---|--(11)----|--(11)----|
B|-11^---------|-2^---------|---|-------|-----------|----------|----------|
G|----13-------|-3^---------|---|-------|-----------|----------|----------|
D|-------------|------------|---|-------|-----------|----------|----------|
A|-------------|------------|---|-------|-----------|----------|----------|
E|-------------|------------|---|-------|-----------|----------|----------|

  ~~~~~~~~~~~~~~~~~~~~              ~~~~~~~~~~~~~~~~~~~~~~~~~~~~
e|----(11)--|---(11)---|---13--|---11-----|---(11)----|--(11)----|-18--16-|
B|----------|----------|-------|----------|-----------|----------|--------|
G|----------|----------|-------|----------|-----------|----------|--------|
D|----------|----------|-------|----------|-----------|----------|--------|
A|----------|----------|-------|----------|-----------|----------|--------|
E|----------|----------|-------|----------|-----------|----------|--------|

                                                    ~~~~~~~~~~~~~~~~~~~~~
e|---15-----|---(15)---|----------|----------|-----11----|-----(11)-------|
B|----------|----------|----------|----------|-----------|----------------|
G|----------|----------|----------|----------|-----------|----------------|
D|----------|----------|----------|----------|-----------|----------------|
A|----------|----------|----------|----------|-----------|----------------|
E|----------|----------|----------|----------|-----------|----------------|






| /  slide up
| \  slide down
| h  hammer-on
| p  pull-off
| ~  vibrato
| +  harmonic
| x  Mute note
| ^  bend note
|(x) means note is carried over from last measure
=========================================================================