Black Label Society - House Of Doom Chords & Tabs

 

House Of Doom Chords & Tabs

Black Label Society Chords & Tabs

Version: 2 Type: Tab 0 ratings
1 star 2 stars 3 stars 4 stars 5 stars
comments

House Of Doom Tab

-----------------------------------------------------------------------------
               Black label society - House of doom
-----------------------------------------------------------------------------
the other tab is correct except for the solo ( the best part of the song )

Tabbed by: Noah Sturm
Email:

Tuning: Standard , tune down 1 half step

Tempo: 126

INTERLUDE
|---------------------------------------------------------------------------|
|-------------------------------------------------10-12-14-10---------------|
|---------------------------------9-11-13-9-11-13---------------------------|
|-----------------7--9-11--7-9-11-------------------------------------------|
|-7-9-11-7--9-11------------------------------------------------------------|
|---------------------------------------------------------------------------|

SOLO   ^   ^   ^  ^            ^                                            
|-----14--14--11-11p9------^---9--7---^---^----7----------------------------|
|----------------------12-12---------10--10------10p7-10p7-10p7-----7-------|
|-----------------------------------------------------------------9---------|
|---------------------------------------------------------------------------|
|---------------------------------------------------------------------------|
|---------------------------------------------------------------------------|
[ Tab from: http://www.guitartabs.cc/tabs/b/black_label_society/house_of_doom_tab_ver_2.html ]
|---------------------------------------------------------------------------|
|--9p7-10p7---7--7-----7--10p7----7-10p7-9p7--7---7-7-----------------------|
|-----------9------10----------9----------------------10-9-7-9-7------------|
|-----------------------------------------------------------------0-0-------|
|-----------------------------------------------------------------0-0-------|
|---------------------------------------------------------------------------|
       ^                                                          
|--^--17-17\----------------------------------------------------------------|
|-10-------------------------------------------------7-7--------------------|
|----------------------------------------7-7-7-9-7-9-----10-7-10------------|
|----------------------------7---7-9-7-9------------------------------------|
|------------0-5-6-7-7-9-7-9---9--------------------------------------------|
|---------------------------------------------------------------------------|
                                                              end
|--7--10-7-9--7--7----^-----------------------------------------0-----------|
|--------------------10-----------------------------------------0-----------|
|-------------------------let ring out--------------------------2-----------|
|---------------------------------------------------------------4-----------|
|---------------------------------------------------------------2-----------|
|---------------------------------------------------------------------------|

This tab is 100% correct, I'm sure of it
It's a good song with a good, simple solo...  have fun.

-Thanks
Comments