Black Label Society - Graveyard Disciples Chords & Tabs

 

Graveyard Disciples Chords & Tabs

Black Label Society Chords & Tabs

Version: 1 Type: Bass Tab 0 ratings
1 star 2 stars 3 stars 4 stars 5 stars
comments

Graveyard Disciples Bass Tab

Black Label Society - Graveyard Disciples
Bass Tab

tabbed by Daniel "TenTonHammer" van Boeyen (daniel@icarus666.demon.nl)

Made this for my band's bass player so he could play along with us,
it should all be correct, listen to the record for the timing.

Tuning: Drop C (CGCF)

Verse:
F|----------------------------------------------|
C|----------------------------------------------|
G|--------------------------------------3h5-3~--|
C|-0-0-0-0-0-0-0-0-1~~-0-0-0-0-0-0-0-0----------|


Chorus:
F|------------------------------------------------|
C|------------------------------------------------|
G|------------------------------------------------|
C|-5--------------7--------------5--------------3-|

[ Tab from: http://www.guitartabs.cc/tabs/b/black_label_society/graveyard_disciples_btab.html ]
Bridge:
F|------------------------------------------------|
C|------------------------------------------------|
G|-5-3-5---5-3-5---3-5-7---5-3-5---5-3-5---3-7----|
C|------------------------------------------------|


Solo:

F|------------------------------------------------|
C|------------------------------------------------|
G|-5-3-5---5-3-5---3-5-7---5-3-5---5-3-5---3-7----|
C|------------------------------------------------|

F|------------------------------------------------|
C|------------------------------------------------|
G|-7-5-7---7-5-7---5-7-9---7-5-7---7-5-7---5-9----|
C|------------------------------------------------|

F|------------------------------------------------|
C|------------------------------------------------|
G|-9-7-9---9-7-9---7-9-11--9-7-9---9-7-9---7-11---|
C|------------------------------------------------|
Comments