Black Label Society - Forever Down Chords & Tabs

 

Forever Down Chords & Tabs

Black Label Society Chords & Tabs

Version: 3 Type: Tab

Forever Down Tab

sorry its hard to do the intro on the guitar so im skipping it...

legend:
*-pinch harmonic
/-slide up/down
pm-palm mute
pre-verse:
gtr.1
e|----------------------------------------------------------|
b|----------------------------------------------------------|
g|----------------------------------------------------------|
d|-0-0-0-0-0---------0-3-0-5-5--0-0-0-0-0---------0-3-0-3-5-|
a|-0-0-0-0-0---------0-3-0-3-5--0-0-0-0-0---------0-3-0-3-5-|
D|-0-0-0-0-0-10-7-12-0-3-0---5--0-0-0-0-0-10-7-12-0-3-0-3-5-|
pm   -----           -   -        --------------------------|
gtr.2
e|----------------------------------------------------------|
b|--------------------------------------6*------------------|
g|---------7*-----------------------------------------------|
d|-------------------0-3-0-5-5--------------------0-3-0-3-5-|
a|-------------------0-3-0-3-5--------------------0-3-0-3-5-|
D|-------------------0-3-0---5--------------------0-3-0-3-5-|
pm                   -   -                        -   -
[ Tab from: http://www.guitartabs.cc/tabs/b/black_label_society/forever_down_tab_ver_3.html ]
verse:
gtr.1
e|-----------------------------------------------------------------|
b|-----------------------------------------------------------------|
g|-----------------------------------------------------------------|
d|-0-0-0-0-0-0-0-0-0-0-0-0-6--6--5-----0-0-0-0-0-0-0-0-0-0-0-0-6-6-|
a|-0-0-0-0-0-0-0-0-0-0-0-0-6--6--5-----0-0-0-0-0-0-0-0-0-0-0-0-6-6-|
D|-0-0-0-0-0-0-0-0-0-0-0-0-6--6--5--3*-0-0-0-0-0-0-0-0-0-0-0-0-6-6-|
pm   ---   ---   ---   ---               ---   ---   ---   ---
gtr.2
e|-----------------------------------------------------------------|
b|-----------------------------------------------------------------|
g|-----------------------------------------------------------------|
d|-0-0-0-0-0-0-0-0-0-0-0-0-6*-6*-5*-3*-0-0-0-0-0-0-0-0-0-0-0-0-6-6-|
a|-0-0-0-0-0-0-0-0-0-0-0-0-------------0-0-0-0-0-0-0-0-0-0-0-0-6-6-|
D|-0-0-0-0-0-0-0-0-0-0-0-0-------------0-0-0-0-0-0-0-0-0-0-0-0-6-6-|
pm   ---   ---   ---   ---               ---   ---   ---   ---

chorus:
gtr.1
e|----------------------------------------------------------|
b|----------------------------------------------------------|
g|----------------------------------------------------------|
d|-0-0-0-0-0---------0-3-0-5-5--0-0-0-0-0---------0-3-0-3-5-|
a|-0-0-0-0-0---------0-3-0-3-5--0-0-0-0-0---------0-3-0-3-5-|
D|-0-0-0-0-0-10-7-12-0-3-0---5--0-0-0-0-0-10-7-12-0-3-0-3-5-|
pm   -----           -   -        --------------------------|
gtr.2
e|---------------------------------------------------------|
b|---------------------------------------------------------|
g|---------7*----------------------------------------------|
d|-------------------0-3-0-5-5---------12------------------|
a|-------------------0-3-0-3-5---------12------------------|
D|-------------------0-3-0---5-----------------------------|
pm                   -   -              ^ (whammy down till repeat)

wow....that took forever, i'll do the solo later, idk i have the bls tab book and the 
doesnt sound like the song, so this is my version and i think it sounds better, later