Black Label Society - Forever Down Chords & Tabs

 

Forever Down Chords & Tabs

Black Label Society Chords & Tabs

Version: 2 Type: Tab 0 ratings
1 star 2 stars 3 stars 4 stars 5 stars
comments

Forever Down Tab

   
black  label society
mafia
forever down

drop d tuning (d,a,d,g,b,e)

this '*' represents a pinch harmonic

intro/chorus
---------------------------------------------------|
---------------------------------------------------|
---------------------------------------------------|
-0-0----------0-0----------0-0-0--3--5-------------|
-0-0----------0-0------5---0-0-0--3--5-------------|
-0-0--0h3-5*--0-0--0h3-----0-0-0--3--5-------------|

---------------------------------------------------|
---------------------------------------------------|
---------------------------------------------------|
-0-0----------0-0----------0-0-0----10---12--------|
-0-0----------0-0------5---0-0-0----8----10--------|
-0-0--0h3-5*--0-0--0h3-----0-0-0-------------------|
[ Tab from: http://www.guitartabs.cc/tabs/b/black_label_society/forever_down_tab_ver_2.html ]
verse
---------------------------------------------------|
---------------------------------------------------|
---------------------------------------------------|
--0--0-0--0--0-0-0--0--0-0-0-----------------------|
--0--0-0--0--0-0-0--0--0-0-0-----------------------|
--0--0-0--0--0-0-0--0--0-0-0--6*--5*--3*-----------|
     pm.    pm....     pm...

---------------------------------------------------|
---------------------------------------------------|
---------------------------------------------------|
--0--0-0--0--0-0-0--0--0-0-0----/6-----------------|
--0--0-0--0--0-0-0--0--0-0-0----/6-----------------|
--0--0-0--0--0-0-0--0--0-0-0----/6-----------------|
     pm.    pm....     pm...

rythm under solo
---------------------------------------------------|
---------------------------------------------------|
---------------------------------------------------|
-0000000000000000-22222222-33335555----------------|
-0000000000000000-22222222-33335555----------------|
-0000000000000000-22222222-33335555----------------|


there all the riffs not got the solo yet but gettin there

tabbed by martin colclough
Comments