Black Label Society - Forever Down Chords & Tabs

 

Forever Down Chords & Tabs

Black Label Society Chords & Tabs

Version: 1 Type: Tab 0 ratings
1 star 2 stars 3 stars 4 stars 5 stars
comments

Forever Down Tab

   
#----------------------------------PLEASE NOTE--------------------------------#
#This file is the author's own work and represents their interpretation of the#
#song. You may only use this file for private study, scholarship, or research.#
#-----------------------------------------------------------------------------#



Artist: Zakk Wylde's Black Label Society
Album: Mafia
Title: Forever Down

From: www.BlackLabelSociety.net

Tabbed By: Skull Dragon

Tuning: D G C F A D





                                         1st ending| 2nd ending
d|-----------------------------------------|-------|--------------|
A|-----------------------------------------|-3-----|-----3--------|
F|-----------------------------------------|-2---2-|--2--2--------|
C|-----------------------------------------|-0---2-|--2--0--------|
G|--15\------------------------------------|-----0-|--0-----------|
D|-------0-0--5p3h5ph--0---12p10h12--0-3-0-|-------|--------------|

[ Tab from: http://www.guitartabs.cc/tabs/b/black_label_society/forever_down_tab.html ]
                         |1st ending| 2nd ending
d|-----------------------|----------|-----------------------------|
A|-----------------------|----------|-----------------------------|
F|-----------------------|----------|-----------------------------|
C|-2------2------2-------|----------|-----------------------------|
G|-2------2------2-------|----------|-----------------------------|
D|-0-0-0--0-0-0--0-0-0---|-6ph--5\3-|----/6~----------------------|



  Rhythm during lead, repeat 4x:
d|--------------------------------------------------------------|
A|--------------------------------------------------------------|
F|--------------------------------------------------------------|
C|-2------2------2------2-------2---2---------------------------|
G|-2------2------2------2-------2---2---------------------------|
D|-0-0-0--0-0-0--0-0-0--0-0-0---0-0-0---------------------------|

d|--------------------------------------------------------------|
A|--------------------------------------------------------------|
F|--------------------------------------------------------------|
C|-4------4------4------5---------------------------------------|
G|-4------4------4------5------7-7------------------------------|
D|-2-2-2--2-2-2--2-2-2--3-3-3--5-5------------------------------|

Comments