Black Label Society - Fire It Up Chords & Tabs

 

Fire It Up Chords & Tabs

Black Label Society Chords & Tabs

Version: 1 Type: Tab 2 ratings
1 star 2 stars 3 stars 4 stars 5 stars
comments

Fire It Up Tab

   
Fire It Up Tab by Black Label Society


Tuning - Eb Ab Db Gb Bb Eb

Intro and Verse breaks(Talk Box riff, works w/ Chorus
and some other effects)

|-------------------------------|
|-------------------------------|
|-------------------------------|
|-------------------------------|
|-3~2~2~0--3~2~2~0--3~2~2~0-----|
|--------2~-------2~--------0-2~|

Main Guitar Riff (Palm Muted)

|-----------------------------------------------|
|-----------------------------------------------|
|-----------------------------------------------|
|----------------------------4444---------------|
|4444444444444444----2222----2222----44444444---|
|2222222222222222-00-0000-00------00-22222222-00|

Keep moving on.....(Palm Mute 0's)
[ Tab from: http://www.guitartabs.cc/tabs/b/black_label_society/fire_it_up_tab.html ]
|-----------------------------------------------------|
|-----------------------------------------------------|
|-----------------------------------------------------|
|-------------5b-9b-10b-12b--------------5b-9b-10b-12b|
|-----------------------------------------------------|
|6~6~6~6~/-00---------------6~6~6~6~/-00--------------|

Face your fear
                                    Trill, with "hand flange"
|-------|-----------|-------------|--------------------------|
|-------|-----------|-------------|--------------------------|
|-------|-4 times---|-------------|3-5-3-5-3-5-3-5-3-5 etc.--|
|2------|-----------|2----4-444444|--------------------------|
|0----2-|-----------|0----2-222222|--------------------------|
|-----0-|0-2-0-2-2ph|-------000000|--------------------------|

The backing to the solo is pretty much all based around the
"Keep moving on" part (except the first part, which is the main riff twice). The main
backing goes something like this....
(Palm Mute all 0's)

|--------------------------------|
|--------------------------------|
|--------------------------------|
|------------5b----5b----5b----5b|
|--------------------------------|
|6~6~6~6/-00----00----00----00---|

The backing varies a little, so you'll have to work those bits out on
your own, but the main part is based on the above.
Comments