Black Label Society - Final Solution Chords & Tabs

 

Final Solution Chords & Tabs

Black Label Society Chords & Tabs

Version: 1 Type: Tab 0 ratings
1 star 2 stars 3 stars 4 stars 5 stars
comments

Final Solution Tab

Artist: Black Label Society
Title: Final Solution
Album: The Blessed Hellride

         This is my first tab and i'm about 90% on all of it. It's an awesome
song and pretty simple to play. Here goes.

Tuning(low to high): B A D G b e Zakk uses this tuning a lot to make his
low end sound heavier and this song is the best example of this.

Intro and Main Riff:
[ Tab from: http://www.guitartabs.cc/tabs/b/black_label_society/final_solution_tab.html ]
e------------------------------------------------------------------------|
b------------------------------------------------------------------------|
G------------------------------------------------------------------------|
D--0---------0--------------------------0---------0----------------------|
A--0---------0--------------------------0--0-0-0--0--0-0-0---------------|
B--0--0-0-0--0--0-0-0--0-6-5-3-5-6-5-3--0--0-0-0--0--0-0-0--0-5ph^-0-5ph^|

Chorus:

e-------------------------------------------|
b-------------------------------------------|
G--10-10-10--5-4----------------------------|
D--10-10-10--5-4----------------------------|
A--8--8--8---3-2---0-0-0-0-0-0-0-0----------|
B------------------0-0-0-0-0-0-0-0----------|

Bridge and Solo backing:

e--------------------------|
b--------------------------|
G--4~~--6-7--2-------------|
D--4~~--6-7--2-------------|
A--2~~--4-5--0-------------|
B---------------5^--0-3-5--|

I'll get back to you with the solo when I'm done with it. Here's everything
else though. Hope you like it. -Slade

E-mail: slademendenhall@comcast.net
Comments