Black Label Society - Doomsday Jesus Chords & Tabs

 

Doomsday Jesus Chords & Tabs

Black Label Society Chords & Tabs

Version: 1 Type: Tab 1 rating
1 star 2 stars 3 stars 4 stars 5 stars
comments

Doomsday Jesus Tab

   
Doomsday Jesus 
Black Label Society
The Blessed Hellride

KEY:
/...slide up
\...slide down
h...hammer-on
p...pull-off
p.m...palm mute
!...pick squeel
~~~...vibrato
b...bend
#b#...First number=position, second number=note you're bending
br...bend and release bend
T...tap


INTRO
           p.m..........................        p.m..........................
---------------------------------------------------------------------------------------------------
---------------------------------------------------------------------------------------------------
------------------------------------------5------------------------------------5-------------------
------------------------------------------5------------------------------------5-------------------
------------------------------------------3------------------------------------3-------------------
--1/17\1---0-0-0-0-0-0-0-0-0-0-0-0-0-0-0--------0-0-0-0-0-0-0-0-0-0-0-0-0-0-0----------------------

CHORUS                                 p.m..........            p.m....          ~~~~~~
---------------------------------------------------------------------------------------------------
---------------------------------------------------------------------------------------------------
---------------------------------------------------------------------------------------------------
----------10--9--7--9--10--7----------------------------------------------------------10--9--7--9--
----------8---7--5--7--8---5---/5--3---3--2--3--2--0--2--3--2-------------------------8---7--5--7--
--3/17\3-----------------------/5--3---3--0--3--2--0--2--3--0---0--5/7--0--5/7--!3!----------------

           
                  p.m..  ~~~~~    ~~~~~    ~~~~    ~~~~~ p.m....
-------------------------------------------------------------------
-------------------------------------------------------------------
-------------------------------------------------------------------
--10--7------------------------------------------------------------
--8---5---/5--3---3--2--------0---------0-------0---------------2--
----------/5--3---3--0--!3!---0--!3!----0--!3!--0--!3!---0-0-0--0--


END CHORUS
       p.m   p.m   p.m
----------------------------
----------------------------
----------------------------
----------------------------
--5--4-----2-----2----------
--3--2--0--0--0--0--0--!3!--

[ Tab from: http://www.guitartabs.cc/tabs/b/black_label_society/doomsday_jesus_tab.html ]
SOLO BUILD-UP
--------------------------------------------------------
--------------------------------------------------------
--------------------------------------------------------
--5/------7/------9/------12/----everything before this-
-----------------------------------is too low to figure-
-------------------------------------------out----------

SOLO
                               ~~~
----------------------------------------------------------------------------------------------
----------------------------------------------------------------------------------------------
------------------------------------------------------------------------------5-7-8--8b10-------
--/8--7--5-----------------5-5-------/8--7--5--------------------------5-7-8--------------------
------------7-!5h7!-5-7-7------7-\-------------7--!5h7!---------5-7-8---------------------------
---------------------------------------------------------5-7-8----------------------------------


------------17p14h16p1417p14h16p14------------------------------------17p14h17p14--------------
--17b20r17--------------------------17p15p14-17p15p14-----------------------------17p14--------
-------------------------------------------------------16b18r16--14----------------------------
-----------------------------------------------------------------------------------------------
-----------------------------------------------------------------------------------------------
-----------------------------------------------------------------------------------------------

                                                                                                             ~~~~~~~~~~~                     
--17p14h17p14--------17p14h17p14--------17p14h17p14----------------------------------------------------------------------
--------------17p14--------------17p14---------------17p14--18T15-18T15-18T15-18T15-20T17-20T17-20T17-20T17--------------
-------------------------------------------------------------------------------------------------------------/19\--------
-------------------------------------------------------------------------------------------------------------------------
-------------------------------------------------------------------------------------------------------------------------
-------------------------------------------------------------------------------------------------------------------------



SONG ORDER:
Intro 8x
Chorus 4x
Intro 6x
Chorus 4x
End Chorus 3x
Solo Build-up
Solo
Chorus 4x
End Chorus

Tabbed by Jordan Navarro




Comments