Black Label Society - Doomesday Jesus Chords & Tabs

 

Doomesday Jesus Chords & Tabs

Black Label Society Chords & Tabs

Version: 1 Type: Tab 0 ratings
1 star 2 stars 3 stars 4 stars 5 stars
comments

Doomesday Jesus Tab

   
Yet another B.L.S song. sorry but i don't think enough people listen to them as they should.

Tuning-(low to high) C G C F A D

pm = Palm mute
/ = slide
~ = vibrato (normally 2 frets wide)
* = Pinched Harmonic
h = hammer-on 
b = bend note
r = release bent note
t = trill(constant hammer-on)

Intro/Verse
e|--------------------------------------------|
b|--------------------------------------------|
g|--------------------------------------------|
d|--------------------------------------7-----|
a|--------------------------------------5-----|
e|-1/22\1-0-0-0-0-0-0-0-0-0-0-0-0-0-0-0-0-----|
        pm|---------------------------|

Chorus
e|--------------------------------------------|
b|--------------------------------------------|
g|--------------------------------------------|
d|-10-9-7-9-10-7------------------------------|
a|-8--7-5-7-8--5-6-5-3-3-2-0-2-3-0------------|
e|---------------6-5-3-3-2-0-2-3-0------------|
                     pm---   pm-

at the end of the riff above there are two things that are played

1                              2
e|--------------------|        e|--------------------------|
b|--------------------|        b|--------------------------|
g|--------------------|        g|--------------------------|
d|---5---5------------|        d|--------------------------|
a|-0-3-0-3-5*~--------|        a|-----------------------0--|
e|-0---0--------------|        e|-3*~-0-3*~-0-3*~-0-3*~-0--|

note:the second fill is played before the palm muting starts on the first time round.

bit after second chorus   x2
e|---------------------------------------------|
b|---------------------------------------------|
g|---------------------------------------------|
d|---------------------------------------------|
a|-6-5-0-5-0-0-----0------------------------0--|
e|-6-5-0-5-0-0-3*~-0--3*~-0-3*~-0-3*~-0-3*~-0--|
[ Tab from: http://www.guitartabs.cc/tabs/b/black_label_society/doomesday_jesus_tab.html ]
bit before solo
e|---------------------------------------------|
b|---------------------------------------------|
g|---------------------------------------------|
d|---------------------------------------------|
a|---------------------------------------------|
e|-0-0-0-0-0-0-0-0-0-0-0-0-0-0-0-0-0-0-0-0-0-0-|


solo
e|-------------------------------------------------------------------------|
b|-------------------------------------------------------------------------|
g|------------------------------------------------------------5-7-8--8b10*-|
d|-8-7-5-------------5-5-------8-7-5--------------------5-7-8--------------|
a|-------7-5h7-5-7-7-----7~-/--------7-5h7--------5-7-8--------------------|
e|------------------------------------------5-7-8--------------------------|
                                            pm|-------------------|        

e|--------------17-14-16-14-17-14-16-14----------------------------------|
b|-17b20r17~~---------------------------17-15-14-17-15-14----------------|
g|--------------------------------------------------------16b18r16-14----|
d|-----------------------------------------------------------------------|
a|-----------------------------------------------------------------------|
e|-----------------------------------------------------------------------|


e|-17-14-17-14-------17-14-17-14-------17-14-17-14-------17-14-17-14-------|
b|-------------17-14-------------17-14-------------17-14-------------17-14-|
g|-------------------------------------------------------------------------|
d|-------------------------------------------------------------------------|
a|-------------------------------------------------------------------------|
e|-------------------------------------------------------------------------|

e|-------------------------|
b|-15t18----17t20----------|once again because it's zakk wylde he picks all
g|-----------------19~-----|the notes but you can get away with hammer-on's
d|-------------------------|and pull off's.  as it is difficult to pick all
a|-------------------------|notes.
e|-------------------------|

hopefully i'll be tabbing some other songs from now and will be alot more accurate.    S.D.M.F
Comments