Black Label Society - Counterfeit God Chords & Tabs

 

Counterfeit God Chords & Tabs

Black Label Society Chords & Tabs

Version: 2 Type: Tab 0 ratings
1 star 2 stars 3 stars 4 stars 5 stars
comments

Counterfeit God Tab

Author/Artist: Black Label Society
Title: Counterfeit God
Tabbed by: Sqweekytune your E string DOWN! to G

e------------------------------------------------------------------------------
B------------------------------------------------------------------------------
G------------------------------------------------------------------------------
D----------------------------------ph-ph---------------------------------------
A------------------------------------------------------------------------------
G-0--12-10-12--12-10-12--12-10-12--5--3----------------------------------------


e------------------------------------------------------------------------------
B------------------------------------------------------------------------------
G------------------------------------------------------------------------------
D------------------------------------------------------------------------------
A------------------------------------------------------------------------------
G-0--12-10-12--12-10-12--12-10-12--xxxx----------------------------------------


e------------------------------------------------------------------------------
B------------------------------------------------------------------------------
G------------------------------------------------------------------------------
D--ph-----ph-------------------------------------------------------------------
A------------------------------------------------------------------------------
G--3-0--00-3-0--0-0-0-0-0-0-6-5------------------------------------------------


e------------------------------------------------------------------------------
B------------------------------------------------------------------------------
G------------------------------------------------------------------------------
D------------------------------------------------------------------------------
A------------------------------------------------------------------------------
G---5--3--0--0-5--0-0--0-0-0---5--3--0--0-5-00-3-00-5-00-6-00-10---------------
SOLO! By Skull Dragon

   ~~~~~~~~~trill~~~~~~~~   ph
e-------|------|------|--------------------------------------------------------
B-------|------|------|--------------------------------------------------------
G--0--7-|-0--6-|-0--5-|-0--3---3-----------------------------------------------
D-------|------|------|--------------------------------------------------------
A-------|------|------|--------------------------------------------------------
G-------|------|------|--------------------------------------------------------


e---------------------------------------18-15----15--20-18-15------------------
B------------------18-15----15-20-18-15-------18--------------18-15----15-20---
G-----15-18--17-15-------18-----------------------------------------18---------
D--17--------------------------------------------------------------------------
A------------------------------------------------------------------------------
G------------------------------------------------------------------------------

[ Tab from: http://www.guitartabs.cc/tabs/b/black_label_society/counterfeit_god_tab_ver_2.html ]
e------------------------------------------------------------------------------
B--18-15-----------------------------------------------------------------------
G--------17-15----15-18-17-15-------17~~---------------------------------------
D--------------17-------------17-15--------------------------------------------
A------------------------------------------------------------------------------
G------------------------------------------------------------------------------


   ~~~~~~~~~trill~~~~~~~~   ph
e-------|------|------|--------------------------------------------------------
B-------|------|------|--------------------------------------------------------
G--0--7-|-0--6-|-0--5-|-0--3---3-----------------------------------------------
D-------|------|------|--------------------------------------------------------
A-------|------|------|--------------------------------------------------------
G-------|------|------|--------------------------------------------------------


e------------------------------------------------------------------------------
B------------------------------------------------------------------------------
G----3---0---3---0----/----/----5-3-0-5-3-0----/--/----3-5-3-0-----------------
D--5---0---5---0-----/----/-------------------/--/----------------5-3-0--------
A------------------------------------------------------------------------------
G------------------------------------------------------------------------------


e--------------------18-15-----------------------------------------------------
B--------------13-15-------16-15-------17-15-----------------------------------
G--------12-15-------------------17-15-------17-15-------17-12-------15-12-----
D--12-15-------------------------------------------17-15-------15-12-----------
A------------------------------------------------------------------------------
G------------------------------------------------------------------------------

e------------------------------------------------------------------------------
B------------------------------------------------------------------------------
G--------16-13-------15-12--------14-11-------15-12-------16-13----------------
D--15-12-------16-13--------15-12-------14-11-------15-12-------16-13----------
A------------------------------------------------------------------------------
G------------------------------------------------------------------------------

e------------------------------------------------------------------------------
B------------------------------------------------------------------------------
G--15-12-------14-11-------15-12-------16-13-------15~~~-----------------------
D--------15-12-------14-11-------15-12-------16-13-----------------------------
A------------------------------------------------------------------------------
G------------------------------------------------------------------------------

e----------------------------------------------17----------18-19-----------13~~
B--15~~~~~~~~~--------------------17-----------------16-17-------18------------
G-----------------17--------------------16--15----15----------------17-13------
D-----------------------16~~~--15----15----------------------------------------
A--------------15----15--------------------------------------------------------
G------------------------------------------------------------------------------
Comments