Black Label Society - Bleed For Me Chords & Tabs

 

Bleed For Me Chords & Tabs

Black Label Society Chords & Tabs

Version: 2 Type: Tab 0 ratings
1 star 2 stars 3 stars 4 stars 5 stars
comments

Bleed For Me Tab

   
Bleed for Me
Black Label Society
Email: brentmartin90@hotmail.com

Tuning: Drop D, down 1 full step

Main Riff
d|-------------------------------------|
a|-------------------------------------|
f|-------------------------------------|
c|-------------------------------------|
g|----------------------------353-3----|
C|-30000000-30000000-30000000----3-530-|
pm ........ ........ ........ ........
[ Tab from: http://www.guitartabs.cc/tabs/b/black_label_society/bleed_for_me_tab_ver_2.html ]
d|-----------------------------------|
a|-----------------------------------|
f|-----------------------------------|
c|---------------------------------3-|
g|---------------------------------3-|
C|-30000000-30000000-30000000-3000-3-|
pm ........ ........ ........ .... .

Verse Riff
d|----------------------------|
a|---------------------8/98/9-|
f|---------------------7/87/8-|
c|---------------------5/65/6-|
g|-30-0-50-0-30-0-60-0--------|
C|-30-0-50-0-30-0-60-0--------|
pm  . .  . .  . .  . .

Chorus Riff
d|------------------|-------------------|
a|----8--6--5/6\5---|----8--6--5/6\5----|
f|-7--7--5--4/5\4-5-|-7--7--5--4/5\4-53-|
c|-7--5--3--2/3\2-5-|-7--5--3--2/3\2-53-|
g|-5--------------3-|-5--------------31-|
C|------------------|-------------------|

I've got about 1/3 of the solo right now
I'll put it up when (if) I finish.
Comments