Black Label Society - Bleed For Me Chords & Tabs

 

Black Label Society Chords & Tabs

Version: 1 Type: Tab 0 ratings
1 star 2 stars 3 stars 4 stars 5 stars
comments

Bleed For Me Tab

   
Zakk Wydle's Black Label Society - Bleed For Me

Dropped-D Tuning down one whole step (low to high: C G C F A D)

Tabbed By T.J. Williams

Key: T = Tap with edge of pick

P.M..................................................................
|--------------------------------------------------------------------|
|--------------------------------------------------------------------|
|--------------------------------------------------------------------|
|--------------------------------------------------------------------|
|--------------------------------------------------------5-3--3------|
|-x-0-0-0--0-0-0-0--x-0-0-0--0-0-0-0--x-0-0-0--0-0-0-0--x----6-6-5-3-|

P.M...........................................................|
|--------------------------------------------------------------------|
|--------------------------------------------------------------------|
|--------------------------------------------------------------------|
|---------------------------------------------------------------3----|
|---------------------------------------------------------------3----|
|-x-0-0-0--0-0-0-0--x-0-0-0--0-0-0-0--x-0-0-0--0-0-0-0--x-0-0-0------|

|--------------------------------------------------------------------|
|--------------------------------------------------------------------|
|--------------------------------------------------------------------|
|--------------------------------------------------------------------|
|--------------------------------------------------------5-3--3------|
|-x-0-0-0--0-0-0-0--x-0-0-0--0-0-0-0--x-0-0-0--0-0-0-0-0-----6-6-5-3-|

|------------------------------------------|
|------------------------------------------|
|------------------------------------------|
|-------------------------------------3----|
|-------------------------------------3----|
|-x-0-0-0--0-0-0-0--x-0-0-0--0-0-0-0-------|

P.M..................................................................
|--------------------------------------------------------------------|
|--------------------------------------------------------------------|
|--------------------------------------------------------------------|
|--------------------------------------------------------------------|
|--------------------------------------------------------5-3--3------|
|-x-0-0-0--0-0-0-0--x-0-0-0--0-0-0-0--x-0-0-0--0-0-0-0-x-----6-6-5-3-|

P.M...........................................................|
|--------------------------------------------------------------------|
|--------------------------------------------------------------------|
|--------------------------------------------------------------------|
|---------------------------------------------------------------3----|
|---------------------------------------------------------------3----|
|-x-0-0-0--0-0-0-0--x-0-0-0--0-0-0-0--x-0-0-0--0-0-0-0--x-0-0-0------|

Then the lyrics start in

P.M.....|   P.M...|   P.M...|  P.M...|
|----------------------------------------------|
|----------------------------------------------|
|----------------------------------------------|
|-------------------------------------/6---4/6-|
|-0--0--0--5--0--0--3--0--0--6--0--0---x---x---|
|-0--0--0--5--0--0--3--0--0--6--0--0--/6---4/6-|

P.M..................................................................
|--------------------------------------------------------------------|
|--------------------------------------------------------------------|
|--------------------------------------------------------------------|
|--------------------------------------------------------------------|
|--------------------------------------------------------5-3--3------|
|-x-0-0-0--0-0-0-0--x-0-0-0--0-0-0-0--x-0-0-0--0-0-0-0--x----6-6-5-3-|

(Repeat Last 2 lines)

P.M.....|   P.M...|   P.M...|  P.M...|
|----------------------------------------------|
|----------------------------------------------|
|----------------------------------------------|
|-------------------------------------/6---4/6-|
|-0--0--0--5--0--0--3--0--0--6--0--0---x---x---|
|-0--0--0--5--0--0--3--0--0--6--0--0--/6---4/6-|


P.M..................................................................
|--------------------------------------------------------------------|
|--------------------------------------------------------------------|
|--------------------------------------------------------------------|
|--------------------------------------------------------------------|
|--------------------------------------------------------5-3--3------|
|-x-0-0-0--0-0-0-0--x-0-0-0--0-0-0-0--x-0-0-0--0-0-0-0--x----6-6-5-3-|

P.M...........................................................|
|--------------------------------------------------------------------|
|--------------------------------------------------------------------|
|--------------------------------------------------------------------|
|---------------------------------------------------------------3----|
|---------------------------------------------------------------3----|
|-x-0-0-0--0-0-0-0--x-0-0-0--0-0-0-0--x-0-0-0--0-0-0-0--x-0-0-0------|

Chorus

|-------------------------------|         |---|
|-------------------------------|         |---|
|--------12--12--10-(10)--9/5---| Repeat  |-3-|
|-7---0--x-------x--( )---x-x---|   then  |-x-|
|-5---0--x-------x--( )---x-x---|         |-x-|
|--------10--10--8--(8)---7/3-0-|         |-1-|

Repeat

Repeat everything again (listen to song)

Now The Solo (with distortion and wah pedal)
[ Tab from: http://www.guitartabs.cc/tabs/b/black_label_society/bleed_for_me_tab.html ]
|-------------------------------------|
|-------------------10-12-13-10-12-13-|
|-10-12-13-10-12-13-------------------|
|-------------------------------------| Repeat 3 times
|-------------------------------------|
|-------------------------------------|

|------------------------------------------------------------------|
|-------------------10-12-13-10---------13-bend--(13)--(13)--(13)--|
|-10-12-13-10-12-13-------------10---10----------------------------|
|------------------------------------------------------------------|
|------------------------------------------------------------------|
|------------------------------------------------------------------|

|-15-14-10-15-14-10-------------------------------------------------|
|------------------13-12-10-13-12-10-----------------------------/--|
|------------------------------------13-12-10-13-12-10-------o--/---|
|------------------------------------------------------12------/--o-|
|-------------------------------------------------------------/-----|
|-------------------------------------------------------------------|

|-15-14-10-15-14-10-------------------------------------------------|
|------------------13-12-10-13-12-10--------------------------------|
|-----------------------------------13-12-10-13-12-10-----12-bend---|
|-----------------------------------------------------12------------|
|-------------------------------------------------------------------|
|-------------------------------------------------------------------|

|-----------------------------------------10---10-13--10--15---13----|
|---------12-half-bend-(12)-(12)-12p10--10---10--------------10---10-|
|-10---10------------------------------------------------------------|
|--------------------------------------------------------------------|
|--------------------------------------------------------------------|
|--------------------------------------------------------------------|

|--12--10----------------------------10------------10----------------|
|----10----10-13-bend-(13)-0-13-bend------------10---13-10--------10-|
|--------------------------0------------12-bend-----------12-bend----|
|--------------------------------------------------------------------|
|--------------------------------------------------------------------|
|--------------------------------------------------------------------|

                        T              T                T
|------------------------------------------------------------------|
|-10---------------------------------------------------------------|
|---12-10-12-bend-(12)--15p12(12)p10---15-bend-12--(12)-17-bend-12-|
|------------------------------------------------------------------|
|------------------------------------------------------------------|
|------------------------------------------------------------------|

            T              T
|----------------------------------------|
|----------------------------------------|
|-(12)p10---15-bend-12p10--17-bend-12p10-|
|----------------------------------------|
|----------------------------------------|
|----------------------------------------|
         T     T     T     T     T     T     T     T     T
|------------------------------------------------------------------------|
|------------------------------------------------------------------------|
|--10-12-15-12-15-12-15-12-15-12-15-12-15-12-15-12-15-12-15-(12)^(12)-10-|
|------------------------------------------------------------------------|
|------------------------------------------------------------------------|
|------------------------------------------------------------------------|

|-----------------------------|
|-----------------------------|
|---10-10-10-12-bend-(12)--10-|
|-12--------------------------|
|-----------------------------|
|-----------------------------|

Outro
P.M..................................................................
|--------------------------------------------------------------------|
|--------------------------------------------------------------------|
|--------------------------------------------------------------------|
|--------------------------------------------------------------------|
|--------------------------------------------------------5-3--3------|
|-x-0-0-0--0-0-0-0--x-0-0-0--0-0-0-0--x-0-0-0--0-0-0-0--x----6-6-5-3-|

P.M...........................................................|
|--------------------------------------------------------------------|
|--------------------------------------------------------------------|
|--------------------------------------------------------------------|
|---------------------------------------------------------------3----|
|---------------------------------------------------------------3----|
|-x-0-0-0--0-0-0-0--x-0-0-0--0-0-0-0--x-0-0-0--0-0-0-0--x-0-0-0------|

P.M..................................................................
|--------------------------------------------------------------------|
|--------------------------------------------------------------------|
|--------------------------------------------------------------------|
|--------------------------------------------------------------------|
|--------------------------------------------------------5-3--3------|
|-x-0-0-0--0-0-0-0--x-0-0-0--0-0-0-0--x-0-0-0--0-0-0-0--x----6-6-5-3-|

P.M...........................................................|
|--------------------------------------------------------------------|
|--------------------------------------------------------------------|
|--------------------------------------------------------------------|
|---------------------------------------------------------------3----|
|---------------------------------------------------------------3----|
|-x-0-0-0--0-0-0-0--x-0-0-0--0-0-0-0--x-0-0-0--0-0-0-0--x-0-0-0------|



Well Thats It! *Whew* That took forever!

Questions or Corrections - Get me at the forum, my screenname is:
munkyIBANEZhead

Dont Forget to put the guitar in Drop D 1 Step Down!!
Comments