Black Label Society - Bleed For Me Chords & Tabs

 

Bleed For Me Chords & Tabs

Black Label Society Chords & Tabs

Version: 1 Type: Chords

Bleed For Me Chords

   
                                                      PLEASE NOTE
 This file is the author's own work and represents their interpretation of the
 song. You may only use this file for private study , scholarship , or research.

 ( Please dont copy this file to another site without expressed permission of      
 ( the author...... My e-mail is below. ) 

 Date :   01/06/05

 Track :   Bleed for me
 Album :

 Tabbed by :   James Miller   ( The Mad Axeman )!!!

 E-mail :   savageintellect@hotmail.co.uk

 Tuning :   D A D G B E   

 Notes :   Zakk picks/shreds every note of the solo but if you cant go that fast I have
                 Included the symbols for hammer-on and pull-offs to EASE YA PAIN CHILD!
                 Zakk also uses the wah-pedal on the solo , so if you dont have one you had 
                 better go n SELL YA SOUL 4 one....................... NOW!!! 

 Slide up :   /
 Slide down :   \
 Vibrato :   ~~~~~~~
 Hammer-on :   H
 Pull-off :   P
 Bend :   ^ ( i will indicate how much. )
 Tap :   T
 Whammy-dive :   / ( up )
 Harmonic :   H
 Artificial Harmonic / Pinch Harmonic :   PH

Rhythm :                                   (A)                                     (B)
-------------------------------|---------------------------------------------------------------------
-------------------------------|---------------------------------------------------------------------
-------------------------------|---------------------------------------------------------------------
-------------------------------|--------------------------------3-----------------------------------
-------------------------------|---5-3---3------------------- -3-----------------------------------
---3-0-0-0-0-3-0-0-0-0----|--------6---6-5-3--------------------------------------------------
 I forgot how many 0s but you get the idea....just pick up the rhythm.......
 Rhythm - a... Rhythm - b  etc.....

 Chorus :
----------------------------------------------------------------------------------------------------
---3-----------------------------------------------------------------------------------------------
---2----5----3------------------------------------------------------------------------------------
---0----5----3-----2-2-3-2----------------------------------------------------------------------
 --------3----1---------------3-0-----------------------------------------------------------------
----------------------------------------------------------------------------------------------------

 Hang on tight........ The solo :   As i said b4 either shred or hammer n pull!!!!!!!!
----------------------------------------------------------------------------------------------------
-------------------------------------10 h 12 h 13--10 h 12 h 13(play 6 times then)-13^13^*
---10 h 12 h 13--10 h 12 h 13------------------------------------------------------------------
----------------------------------------------------------------------------------------------------
----------------------------------------------------------------------------------------------------
----------------------------------------------------------------------------------------------------
                                         * second time hold the bend n maybe a little vibrato ~~~~~ 

                                                                                                          play this 3 times...............
---15 p14 p12--15 p14 p12---------------------------------------------------------------------
----------------------------------13 p12 p10--13 p12 p10--------------------------------------
------------------------------------------------------------------13 p12 p10--13 p12 p10------
------------------------------------------------------------------------------------------------12~~~
------------------------------------------------------------------------------------------------------
------------------------------------------------------------------------------------------------------
[ Tab from: http://www.guitartabs.cc/tabs/b/black_label_society/bleed_for_me_crd.html ]
  Full bend                                                                                           slow full bend
--------------------------------------------10----12---13---12----------------------------------
----------------------/13--/13~~~~--10----10----10---10---10--10-13^---------------------
---12^-----10~~~--------------------------------------------------------------------------------
----------------------------------------------------------------------------------------------------
----------------------------------------------------------------------------------------------------
----------------------------------------------------------------------------------------------------

                                                                                                                full bend /  bend n release
----------------------------------------------------------------------------------------------------
---10-13 p12 p10--13 p12 p10--13 p12 p10------------------------------------------------
------------------------------------------------------13 p12 p10--13 p12 p10-12^-12^-p-10~~
----------------------------------------------------------------------------------------------------
----------------------------------------------------------------------------------------------------
----------------------------------------------------------------------------------------------------

   ( this tapping section : u should have ur third finger on the 12th n first finger on the
     10th and use them to bend the note that you tap onto but when you tap it hold your 
      finger on it........ hope you understand what i just dribbled!!!!! )

      T                                 T                                 T                                 T
 Full bend                  full bend                  full bend                    full bend
----------------------------------------------------------------------------------------------------
----------------------------------------------------------------------------------------------------
---17^-p-10 h12 p10--15^-p-10 h12 p10--17^-p-10 h12p10---15^-p-10 h12 p10-----
----------------------------------------------------------------------------------------------------
----------------------------------------------------------------------------------------------------
----------------------------------------------------------------------------------------------------

 ( For this last part i'll give you a choice of two endings.....both are great!!! )
      ( A )                                                                                                     Full bend / bend n release
------------------------------------------------------------------------------------------------------
---13 p12 p10--13 p12 p10--12 p11p9--12 p11p9--11p10 p 8--11p10 p 8\-------------
------------------------------------------------------------------------------------------12^-12^ p 10~~
------------------------------------------------------------------------------------------------------
------------------------------------------------------------------------------------------------------
------------------------------------------------------------------------------------------------------

     ( B )  Now this is a zakk special....... While tapping the 13th fret with the first finger
              on your right hand place the first finger of your left hand on the 12th n slide it
              back down the neck while the tapping is going on............
      T                                                                     full bend
----------------------------------------------------------------------------------------------------
---13-( constantly )---12\11\10\9\8\7\6\5\-------------------------------------------------
------------------------------------------------------12^ p 10~~~\------------------------------
----------------------------------------------------------------------------------------------------
----------------------------------------------------------------------------------------------------
----------------------------------------------------------------------------------------------------

        Well I hope you kiddies enjoy this one......... rockin ya wah thru that whole solo.....
         Watch out for more from me soon - House of doom - coming soon..............

              Any questions or whatever........ see the e-mail above........ Peace!!!!!!!