Black Label Society - Blackend Waters Chords & Tabs

 

Blackend Waters Chords & Tabs

Black Label Society Chords & Tabs

Version: 1 Type: Bass Tab 0 ratings
1 star 2 stars 3 stars 4 stars 5 stars
comments

Blackend Waters Bass Tab

Intro

G|-----------------------------------------|
D|---0--2--3--5--7---5---------------------|     x2
A|----------------------0000---------------|
E|-----------------------------------------|

Verse

G|-----------------------------------------|
D|--0----5---3----2------------------------|
A|-----------------------------------------|
E|-----------------------------------------|

Chorus
[ Tab from: http://www.guitartabs.cc/tabs/b/black_label_society/blackend_waters_btab.html ]
G|-----------2-----------------------------|
D|---3-----0-------------------------------|
A|--------------33333333--0h---------------|
E|-----------------------------------------|

Verse
Chorus

Solo
come in after drums stop the beating right before you hear the solo

G|-----------------------------------------|
D|--0----5---3----2------------------------|     (same as the Verse)
A|-----------------------------------------|
E|-----------------------------------------|

Chorus
then end

the Chorus part is not entirly correct but its close
Enjoy.
Comments