Black Label Society - Aint Life Grand Chords & Tabs

 

Aint Life Grand Chords & Tabs

Black Label Society Chords & Tabs

Version: 2 Type: Tab 0 ratings
1 star 2 stars 3 stars 4 stars 5 stars
comments

Aint Life Grand Tab

   
Author/Artist: Black Label Society
Title: Ain't Life Grand
Tabbed by: Sqweeky
Dropped B


E-----------------------------------------------------------------
B-----------------------------------------------------------------
G----------------/--/---------------------------------------------
D---------------/--/----------------------------------------------
A--0-0---0-0----------0-0-----------------------------------------
B------0-----0------------0---0-0--3-5-3--0-3-5-3---0--0--3-5-3---


E--------------------------------------------------------------------
B--------------------------------------------------------------------
G--------------------------------------------------------------------
D--------------------------------------------------------------------
A-------------------------------------0------------------0-0---0-0---
B--0--3-5-3-5--0--0---3-5-3-----0-3-5------0--0---3-5-3------0-----0-


Solo
[ Tab from: http://www.guitartabs.cc/tabs/b/black_label_society/aint_life_grand_tab_ver_2.html ]
E-----------------------------------------------------------------
B-----------------------------------------------------------------
G-------19-16-19-------16-19-------16-19-------16-19-------------- repeat
D--/16-----------16-19-------16-19-------16-19-------16-19--------
A-----------------------------------------------------------------
B-----------------------------------------------------------------


E--------------------19--21-21-19----------17-19-18-17------------
B--19~~~~--19-----21--------------20----18-------------19---------
G--------------22--------------------19---------------------------
D-----------------------------------------------------------------
A-----------------------------------------------------------------
B-----------------------------------------------------------------

E-----------14-16-17-16~~~----------------------------------------
B--15-17-18--------------------------------21-19----19-22-21------
G------------------------------19-22-21-19-------21---------------
D---------------------------21------------------------------------
A-----------------------------------------------------------------
B-----------------------------------------------------------------

E-----21-19----19-22-21-19----------------------------------------
B--19-------21-------------21-19----19-22-21-19-------------------
G--------------------------------21--------------21-19-------21---
D------------------------------------------------------21-19------
A-----------------------------------------------------------------
B-----------------------------------------------------------------
Comments